ISO-10303-21;
HEADER;
FILE_DESCRIPTION((''),'2;1');
FILE_NAME('PBG__STEPVORLAGE','2016-08-09T',('deusss58'),(''),
'PRO/ENGINEER BY PARAMETRIC TECHNOLOGY CORPORATION, 2014430',
'PRO/ENGINEER BY PARAMETRIC TECHNOLOGY CORPORATION, 2014430','');
FILE_SCHEMA(('CONFIG_CONTROL_DESIGN'));
ENDSEC;
DATA;
#1=CARTESIAN_POINT('',(0.E0,0.E0,-2.E0));
#2=DIRECTION('',(0.E0,0.E0,-1.E0));
#3=DIRECTION('',(0.E0,-1.E0,0.E0));
#4=AXIS2_PLACEMENT_3D('',#1,#2,#3);
#6=CARTESIAN_POINT('',(4.496071853022E0,-4.644759331368E-1,0.E0));
#7=CARTESIAN_POINT('',(4.413134636652E0,-4.258016739974E-1,0.E0));
#8=CARTESIAN_POINT('',(4.244971509788E0,-3.473859201215E-1,-1.090046628528E-2));
#9=CARTESIAN_POINT('',(3.977214309907E0,-2.225286872907E-1,-6.646312457535E-2));
#10=CARTESIAN_POINT('',(3.719836795821E0,-1.025115814355E-1,
-1.602077207729E-1));
#11=CARTESIAN_POINT('',(3.570827221859E0,-3.302727595886E-2,
-2.376575244218E-1));
#12=CARTESIAN_POINT('',(3.5E0,0.E0,-2.796511981578E-1));
#14=CARTESIAN_POINT('',(0.E0,-4.52E0,-2.E0));
#15=DIRECTION('',(1.E0,0.E0,0.E0));
#16=DIRECTION('',(0.E0,1.E0,0.E0));
#17=AXIS2_PLACEMENT_3D('',#14,#15,#16);
#19=CARTESIAN_POINT('',(0.E0,0.E0,-2.E0));
#20=DIRECTION('',(0.E0,0.E0,1.E0));
#21=DIRECTION('',(0.E0,-1.E0,0.E0));
#22=AXIS2_PLACEMENT_3D('',#19,#20,#21);
#24=CARTESIAN_POINT('',(0.E0,4.52E0,-2.E0));
#25=DIRECTION('',(-1.E0,0.E0,0.E0));
#26=DIRECTION('',(0.E0,-1.E0,0.E0));
#27=AXIS2_PLACEMENT_3D('',#24,#25,#26);
#29=CARTESIAN_POINT('',(3.5E0,0.E0,-2.796511981578E-1));
#30=CARTESIAN_POINT('',(3.571045623981E0,3.312911854073E-2,-2.375280331444E-1));
#31=CARTESIAN_POINT('',(3.720332506365E0,1.027427350583E-1,-1.599909179176E-1));
#32=CARTESIAN_POINT('',(3.977295606338E0,2.225665964391E-1,-6.647860746269E-2));
#33=CARTESIAN_POINT('',(4.244378265369E0,3.471092857057E-1,-1.099061481843E-2));
#34=CARTESIAN_POINT('',(4.412861271575E0,4.256742017686E-1,0.E0));
#35=CARTESIAN_POINT('',(4.496071853022E0,4.644759331368E-1,0.E0));
#37=DIRECTION('',(0.E0,0.E0,-1.E0));
#38=VECTOR('',#37,1.720348801842E0);
#39=CARTESIAN_POINT('',(3.5E0,0.E0,-2.796511981578E-1));
#40=LINE('',#39,#38);
#41=DIRECTION('',(9.063077870367E-1,-4.226182617407E-1,0.E0));
#42=VECTOR('',#41,1.285368426184E0);
#43=CARTESIAN_POINT('',(4.496071853022E0,-4.644759331368E-1,0.E0));
#44=LINE('',#43,#42);
#45=DIRECTION('',(-9.063077870367E-1,-4.226182617407E-1,0.E0));
#46=VECTOR('',#45,1.285368426184E0);
#47=CARTESIAN_POINT('',(5.661011266884E0,1.007696103107E0,0.E0));
#48=LINE('',#47,#46);
#49=CARTESIAN_POINT('',(0.E0,0.E0,0.E0));
#50=DIRECTION('',(0.E0,0.E0,1.E0));
#51=DIRECTION('',(9.947061621730E-1,1.027601621984E-1,0.E0));
#52=AXIS2_PLACEMENT_3D('',#49,#50,#51);
#54=CARTESIAN_POINT('',(0.E0,0.E0,0.E0));
#55=DIRECTION('',(0.E0,0.E0,-1.E0));
#56=DIRECTION('',(0.E0,-1.E0,0.E0));
#57=AXIS2_PLACEMENT_3D('',#54,#55,#56);
#59=CARTESIAN_POINT('',(0.E0,0.E0,0.E0));
#60=DIRECTION('',(0.E0,0.E0,1.E0));
#61=DIRECTION('',(0.E0,-1.E0,0.E0));
#62=AXIS2_PLACEMENT_3D('',#59,#60,#61);
#64=CARTESIAN_POINT('',(0.E0,0.E0,-1.E0));
#65=DIRECTION('',(0.E0,0.E0,-1.E0));
#66=DIRECTION('',(9.845236985884E-1,-1.752514961925E-1,0.E0));
#67=AXIS2_PLACEMENT_3D('',#64,#65,#66);
#69=DIRECTION('',(0.E0,0.E0,-1.E0));
#70=VECTOR('',#69,1.E0);
#71=CARTESIAN_POINT('',(5.661011266884E0,1.007696103107E0,0.E0));
#72=LINE('',#71,#70);
#73=CARTESIAN_POINT('',(0.E0,0.E0,0.E0));
#74=DIRECTION('',(0.E0,0.E0,1.E0));
#75=DIRECTION('',(9.845236985884E-1,1.752514961925E-1,0.E0));
#76=AXIS2_PLACEMENT_3D('',#73,#74,#75);
#78=DIRECTION('',(0.E0,0.E0,-1.E0));
#79=VECTOR('',#78,1.E0);
#80=CARTESIAN_POINT('',(5.661011266884E0,-1.007696103107E0,0.E0));
#81=LINE('',#80,#79);
#82=DIRECTION('',(9.063077870367E-1,-4.226182617407E-1,0.E0));
#83=VECTOR('',#82,1.306539474217E0);
#84=CARTESIAN_POINT('',(4.476884367330E0,-4.555286616179E-1,-1.E0));
#85=LINE('',#84,#83);
#86=DIRECTION('',(-9.063077870367E-1,-4.226182617407E-1,0.E0));
#87=VECTOR('',#86,1.306539474217E0);
#88=CARTESIAN_POINT('',(5.661011266884E0,1.007696103107E0,-1.E0));
#89=LINE('',#88,#87);
#90=CARTESIAN_POINT('',(0.E0,0.E0,-1.E0));
#91=DIRECTION('',(0.E0,0.E0,1.E0));
#92=DIRECTION('',(0.E0,1.E0,0.E0));
#93=AXIS2_PLACEMENT_3D('',#90,#91,#92);
#95=CARTESIAN_POINT('',(3.5E0,0.E0,-2.E0));
#96=CARTESIAN_POINT('',(3.5E0,0.E0,-1.955256140947E0));
#97=CARTESIAN_POINT('',(3.505931711632E0,-2.766002559869E-3,-1.866748889609E0));
#98=CARTESIAN_POINT('',(3.532538515542E0,-1.517295898209E-2,-1.735417161117E0));
#99=CARTESIAN_POINT('',(3.575872847434E0,-3.538008980434E-2,-1.610050756005E0));
#100=CARTESIAN_POINT('',(3.634411199725E0,-6.267697177380E-2,
-1.492777218760E0));
#101=CARTESIAN_POINT('',(3.706333146315E0,-9.621472625809E-2,
-1.385568476256E0));
#102=CARTESIAN_POINT('',(3.790600585108E0,-1.355092783003E-1,
-1.288909426019E0));
#103=CARTESIAN_POINT('',(3.886497068330E0,-1.802265428169E-1,
-1.203602046551E0));
#104=CARTESIAN_POINT('',(3.992331121262E0,-2.295777721923E-1,
-1.131388868936E0));
#105=CARTESIAN_POINT('',(4.106039414827E0,-2.826008202774E-1,
-1.073748331448E0));
#106=CARTESIAN_POINT('',(4.225882874691E0,-3.384847433918E-1,
-1.031610777114E0));
#107=CARTESIAN_POINT('',(4.350297735709E0,-3.965003458732E-1,
-1.005825779023E0));
#108=CARTESIAN_POINT('',(4.434391623386E0,-4.357139697006E-1,-1.E0));
#109=CARTESIAN_POINT('',(4.476884367330E0,-4.555286616179E-1,-1.E0));
#111=CARTESIAN_POINT('',(0.E0,0.E0,-2.E0));
#112=DIRECTION('',(0.E0,0.E0,1.E0));
#113=DIRECTION('',(0.E0,-1.E0,0.E0));
#114=AXIS2_PLACEMENT_3D('',#111,#112,#113);
#116=CARTESIAN_POINT('',(0.E0,0.E0,-2.E0));
#117=DIRECTION('',(0.E0,0.E0,1.E0));
#118=DIRECTION('',(1.E0,0.E0,0.E0));
#119=AXIS2_PLACEMENT_3D('',#116,#117,#118);
#121=DIRECTION('',(0.E0,0.E0,-1.E0));
#122=VECTOR('',#121,1.5E0);
#123=CARTESIAN_POINT('',(0.E0,3.5E0,-2.E0));
#124=LINE('',#123,#122);
#125=DIRECTION('',(0.E0,0.E0,-1.E0));
#126=VECTOR('',#125,1.5E0);
#127=CARTESIAN_POINT('',(0.E0,-3.5E0,-2.E0));
#128=LINE('',#127,#126);
#129=CARTESIAN_POINT('',(4.476884367330E0,4.555286616179E-1,-1.E0));
#130=CARTESIAN_POINT('',(4.434299668088E0,4.356710902412E-1,-1.E0));
#131=CARTESIAN_POINT('',(4.350055085660E0,3.963871962970E-1,-1.005853038468E0));
#132=CARTESIAN_POINT('',(4.225573056663E0,3.383402728730E-1,-1.031693972986E0));
#133=CARTESIAN_POINT('',(4.105643411562E0,2.824161609226E-1,-1.073911068320E0));
#134=CARTESIAN_POINT('',(3.991765598211E0,2.293140644631E-1,-1.131705986623E0));
#135=CARTESIAN_POINT('',(3.885588149504E0,1.798027070077E-1,-1.204282262688E0));
#136=CARTESIAN_POINT('',(3.789323523859E0,1.349137748600E-1,-1.290154201248E0));
#137=CARTESIAN_POINT('',(3.704699672992E0,9.545302513778E-2,-1.387651069005E0));
#138=CARTESIAN_POINT('',(3.632848868034E0,6.194844454139E-2,-1.495469180511E0));
#139=CARTESIAN_POINT('',(3.574866726807E0,3.491092805110E-2,-1.612543803484E0));
#140=CARTESIAN_POINT('',(3.532158001369E0,1.499552230925E-2,-1.737019695119E0));
#141=CARTESIAN_POINT('',(3.505905192595E0,2.753636529716E-3,-1.867245028974E0));
#142=CARTESIAN_POINT('',(3.5E0,0.E0,-1.955388006793E0));
#143=CARTESIAN_POINT('',(3.5E0,0.E0,-2.E0));
#145=CARTESIAN_POINT('',(0.E0,0.E0,-1.E0));
#146=DIRECTION('',(0.E0,0.E0,1.E0));
#147=DIRECTION('',(9.948631927400E-1,1.012285914706E-1,0.E0));
#148=AXIS2_PLACEMENT_3D('',#145,#146,#147);
#150=CARTESIAN_POINT('',(0.E0,4.5E0,-2.E0));
#151=DIRECTION('',(1.E0,0.E0,0.E0));
#152=DIRECTION('',(0.E0,0.E0,1.E0));
#153=AXIS2_PLACEMENT_3D('',#150,#151,#152);
#155=CARTESIAN_POINT('',(0.E0,0.E0,-2.E0));
#156=DIRECTION('',(0.E0,0.E0,-1.E0));
#157=DIRECTION('',(0.E0,-1.E0,0.E0));
#158=AXIS2_PLACEMENT_3D('',#155,#156,#157);
#160=CARTESIAN_POINT('',(0.E0,0.E0,-3.5E0));
#161=DIRECTION('',(0.E0,0.E0,-1.E0));
#162=DIRECTION('',(0.E0,-1.E0,0.E0));
#163=AXIS2_PLACEMENT_3D('',#160,#161,#162);
#165=DIRECTION('',(0.E0,3.420201433257E-1,-9.396926207859E-1));
#166=VECTOR('',#165,5.320888862380E-1);
#167=CARTESIAN_POINT('',(0.E0,-3.5E0,-3.5E0));
#168=LINE('',#167,#166);
#169=CARTESIAN_POINT('',(0.E0,0.E0,-3.5E0));
#170=DIRECTION('',(0.E0,0.E0,1.E0));
#171=DIRECTION('',(0.E0,-1.E0,0.E0));
#172=AXIS2_PLACEMENT_3D('',#169,#170,#171);
#174=DIRECTION('',(0.E0,-3.420201433257E-1,-9.396926207859E-1));
#175=VECTOR('',#174,5.320888862380E-1);
#176=CARTESIAN_POINT('',(0.E0,3.5E0,-3.5E0));
#177=LINE('',#176,#175);
#178=CARTESIAN_POINT('',(0.E0,0.E0,-4.E0));
#179=DIRECTION('',(0.E0,0.E0,-1.E0));
#180=DIRECTION('',(0.E0,-1.E0,0.E0));
#181=AXIS2_PLACEMENT_3D('',#178,#179,#180);
#183=CARTESIAN_POINT('',(0.E0,0.E0,-4.E0));
#184=DIRECTION('',(0.E0,0.E0,1.E0));
#185=DIRECTION('',(0.E0,-1.E0,0.E0));
#186=AXIS2_PLACEMENT_3D('',#183,#184,#185);
#188=DIRECTION('',(0.E0,7.071067811865E-1,7.071067811865E-1));
#189=VECTOR('',#188,4.949747468306E-1);
#190=CARTESIAN_POINT('',(0.E0,-2.87E0,-4.E0));
#191=LINE('',#190,#189);
#192=CARTESIAN_POINT('',(0.E0,0.E0,-4.E0));
#193=DIRECTION('',(0.E0,0.E0,1.E0));
#194=DIRECTION('',(0.E0,-1.E0,0.E0));
#195=AXIS2_PLACEMENT_3D('',#192,#193,#194);
#197=DIRECTION('',(0.E0,-7.071067811865E-1,7.071067811865E-1));
#198=VECTOR('',#197,4.949747468306E-1);
#199=CARTESIAN_POINT('',(0.E0,2.87E0,-4.E0));
#200=LINE('',#199,#198);
#201=CARTESIAN_POINT('',(0.E0,0.E0,-4.E0));
#202=DIRECTION('',(0.E0,0.E0,-1.E0));
#203=DIRECTION('',(0.E0,-1.E0,0.E0));
#204=AXIS2_PLACEMENT_3D('',#201,#202,#203);
#206=CARTESIAN_POINT('',(0.E0,0.E0,-3.65E0));
#207=DIRECTION('',(0.E0,0.E0,-1.E0));
#208=DIRECTION('',(0.E0,-1.E0,0.E0));
#209=AXIS2_PLACEMENT_3D('',#206,#207,#208);
#211=DIRECTION('',(0.E0,0.E0,1.E0));
#212=VECTOR('',#211,1.65E0);
#213=CARTESIAN_POINT('',(0.E0,-2.52E0,-3.65E0));
#214=LINE('',#213,#212);
#215=CARTESIAN_POINT('',(0.E0,0.E0,-3.65E0));
#216=DIRECTION('',(0.E0,0.E0,1.E0));
#217=DIRECTION('',(0.E0,-1.E0,0.E0));
#218=AXIS2_PLACEMENT_3D('',#215,#216,#217);
#220=DIRECTION('',(0.E0,0.E0,1.E0));
#221=VECTOR('',#220,1.65E0);
#222=CARTESIAN_POINT('',(0.E0,2.52E0,-3.65E0));
#223=LINE('',#222,#221);
#224=CARTESIAN_POINT('',(0.E0,-3.5E0,-2.E0));
#225=CARTESIAN_POINT('',(0.E0,-3.5E0,-3.5E0));
#226=VERTEX_POINT('',#224);
#227=VERTEX_POINT('',#225);
#228=CARTESIAN_POINT('',(0.E0,-3.318014882867E0,-4.E0));
#229=VERTEX_POINT('',#228);
#230=CARTESIAN_POINT('',(0.E0,-2.87E0,-4.E0));
#231=CARTESIAN_POINT('',(0.E0,-2.52E0,-3.65E0));
#232=VERTEX_POINT('',#230);
#233=VERTEX_POINT('',#231);
#234=CARTESIAN_POINT('',(0.E0,-2.52E0,-2.E0));
#235=VERTEX_POINT('',#234);
#236=CARTESIAN_POINT('',(0.E0,3.5E0,-2.E0));
#237=CARTESIAN_POINT('',(0.E0,3.5E0,-3.5E0));
#238=VERTEX_POINT('',#236);
#239=VERTEX_POINT('',#237);
#240=CARTESIAN_POINT('',(0.E0,3.318014882867E0,-4.E0));
#241=VERTEX_POINT('',#240);
#242=CARTESIAN_POINT('',(0.E0,2.87E0,-4.E0));
#243=CARTESIAN_POINT('',(0.E0,2.52E0,-3.65E0));
#244=VERTEX_POINT('',#242);
#245=VERTEX_POINT('',#243);
#246=CARTESIAN_POINT('',(0.E0,2.52E0,-2.E0));
#247=VERTEX_POINT('',#246);
#248=CARTESIAN_POINT('',(0.E0,-4.52E0,0.E0));
#249=VERTEX_POINT('',#248);
#250=CARTESIAN_POINT('',(0.E0,4.52E0,0.E0));
#251=VERTEX_POINT('',#250);
#252=CARTESIAN_POINT('',(0.E0,4.5E0,-1.E0));
#253=VERTEX_POINT('',#252);
#254=CARTESIAN_POINT('',(4.496071853022E0,-4.644759331368E-1,0.E0));
#255=CARTESIAN_POINT('',(5.661011266884E0,-1.007696103107E0,0.E0));
#256=VERTEX_POINT('',#254);
#257=VERTEX_POINT('',#255);
#258=CARTESIAN_POINT('',(5.661011266884E0,1.007696103107E0,0.E0));
#259=CARTESIAN_POINT('',(4.496071853022E0,4.644759331368E-1,0.E0));
#260=VERTEX_POINT('',#258);
#261=VERTEX_POINT('',#259);
#262=CARTESIAN_POINT('',(4.476884367330E0,-4.555286616179E-1,-1.E0));
#263=CARTESIAN_POINT('',(5.661011266884E0,-1.007696103107E0,-1.E0));
#264=VERTEX_POINT('',#262);
#265=VERTEX_POINT('',#263);
#266=CARTESIAN_POINT('',(5.661011266884E0,1.007696103107E0,-1.E0));
#267=CARTESIAN_POINT('',(4.476884367330E0,4.555286616179E-1,-1.E0));
#268=VERTEX_POINT('',#266);
#269=VERTEX_POINT('',#267);
#270=VERTEX_POINT('',#12);
#271=VERTEX_POINT('',#95);
#272=CARTESIAN_POINT('',(0.E0,0.E0,-2.E0));
#273=DIRECTION('',(0.E0,0.E0,-1.E0));
#274=DIRECTION('',(0.E0,-1.E0,0.E0));
#275=AXIS2_PLACEMENT_3D('',#272,#273,#274);
#276=TOROIDAL_SURFACE('',#275,4.52E0,2.E0);
#278=ORIENTED_EDGE('',*,*,#277,.T.);
#280=ORIENTED_EDGE('',*,*,#279,.T.);
#282=ORIENTED_EDGE('',*,*,#281,.F.);
#284=ORIENTED_EDGE('',*,*,#283,.F.);
#285=EDGE_LOOP('',(#278,#280,#282,#284));
#286=FACE_OUTER_BOUND('',#285,.F.);
#287=ADVANCED_FACE('',(#286),#276,.T.);
#288=CARTESIAN_POINT('',(0.E0,0.E0,-2.E0));
#289=DIRECTION('',(0.E0,0.E0,-1.E0));
#290=DIRECTION('',(0.E0,-1.E0,0.E0));
#291=AXIS2_PLACEMENT_3D('',#288,#289,#290);
#292=TOROIDAL_SURFACE('',#291,4.52E0,2.E0);
#294=ORIENTED_EDGE('',*,*,#293,.F.);
#296=ORIENTED_EDGE('',*,*,#295,.F.);
#297=ORIENTED_EDGE('',*,*,#277,.F.);
#299=ORIENTED_EDGE('',*,*,#298,.T.);
#300=ORIENTED_EDGE('',*,*,#281,.T.);
#302=ORIENTED_EDGE('',*,*,#301,.F.);
#304=ORIENTED_EDGE('',*,*,#303,.F.);
#305=EDGE_LOOP('',(#294,#296,#297,#299,#300,#302,#304));
#306=FACE_OUTER_BOUND('',#305,.F.);
#307=ADVANCED_FACE('',(#306),#292,.T.);
#308=CARTESIAN_POINT('',(3.5E0,0.E0,0.E0));
#309=DIRECTION('',(-4.226182617407E-1,-9.063077870367E-1,0.E0));
#310=DIRECTION('',(9.063077870367E-1,-4.226182617407E-1,0.E0));
#311=AXIS2_PLACEMENT_3D('',#308,#309,#310);
#312=PLANE('',#311);
#314=ORIENTED_EDGE('',*,*,#313,.F.);
#315=ORIENTED_EDGE('',*,*,#293,.T.);
#317=ORIENTED_EDGE('',*,*,#316,.T.);
#319=ORIENTED_EDGE('',*,*,#318,.T.);
#321=ORIENTED_EDGE('',*,*,#320,.T.);
#323=ORIENTED_EDGE('',*,*,#322,.F.);
#324=EDGE_LOOP('',(#314,#315,#317,#319,#321,#323));
#325=FACE_OUTER_BOUND('',#324,.F.);
#326=ADVANCED_FACE('',(#325),#312,.F.);
#327=CARTESIAN_POINT('',(0.E0,0.E0,0.E0));
#328=DIRECTION('',(0.E0,0.E0,-1.E0));
#329=DIRECTION('',(0.E0,-1.E0,0.E0));
#330=AXIS2_PLACEMENT_3D('',#327,#328,#329);
#331=PLANE('',#330);
#332=ORIENTED_EDGE('',*,*,#313,.T.);
#334=ORIENTED_EDGE('',*,*,#333,.F.);
#336=ORIENTED_EDGE('',*,*,#335,.T.);
#337=ORIENTED_EDGE('',*,*,#301,.T.);
#338=ORIENTED_EDGE('',*,*,#279,.F.);
#339=ORIENTED_EDGE('',*,*,#295,.T.);
#340=EDGE_LOOP('',(#332,#334,#336,#337,#338,#339));
#341=FACE_OUTER_BOUND('',#340,.F.);
#342=ADVANCED_FACE('',(#341),#331,.F.);
#343=CARTESIAN_POINT('',(0.E0,0.E0,2.E-1));
#344=DIRECTION('',(0.E0,0.E0,-1.E0));
#345=DIRECTION('',(0.E0,-1.E0,0.E0));
#346=AXIS2_PLACEMENT_3D('',#343,#344,#345);
#347=CYLINDRICAL_SURFACE('',#346,5.75E0);
#349=ORIENTED_EDGE('',*,*,#348,.T.);
#351=ORIENTED_EDGE('',*,*,#350,.F.);
#352=ORIENTED_EDGE('',*,*,#333,.T.);
#353=ORIENTED_EDGE('',*,*,#322,.T.);
#354=EDGE_LOOP('',(#349,#351,#352,#353));
#355=FACE_OUTER_BOUND('',#354,.F.);
#356=ADVANCED_FACE('',(#355),#347,.T.);
#357=CARTESIAN_POINT('',(0.E0,0.E0,-1.E0));
#358=DIRECTION('',(0.E0,0.E0,-1.E0));
#359=DIRECTION('',(0.E0,-1.E0,0.E0));
#360=AXIS2_PLACEMENT_3D('',#357,#358,#359);
#361=PLANE('',#360);
#362=ORIENTED_EDGE('',*,*,#320,.F.);
#364=ORIENTED_EDGE('',*,*,#363,.F.);
#366=ORIENTED_EDGE('',*,*,#365,.F.);
#368=ORIENTED_EDGE('',*,*,#367,.F.);
#369=ORIENTED_EDGE('',*,*,#348,.F.);
#370=EDGE_LOOP('',(#362,#364,#366,#368,#369));
#371=FACE_OUTER_BOUND('',#370,.F.);
#372=ADVANCED_FACE('',(#371),#361,.T.);
#373=CARTESIAN_POINT('',(0.E0,0.E0,-2.E0));
#374=DIRECTION('',(0.E0,0.E0,-1.E0));
#375=DIRECTION('',(0.E0,-1.E0,0.E0));
#376=AXIS2_PLACEMENT_3D('',#373,#374,#375);
#377=TOROIDAL_SURFACE('',#376,4.5E0,1.E0);
#378=ORIENTED_EDGE('',*,*,#363,.T.);
#379=ORIENTED_EDGE('',*,*,#318,.F.);
#381=ORIENTED_EDGE('',*,*,#380,.F.);
#383=ORIENTED_EDGE('',*,*,#382,.T.);
#385=ORIENTED_EDGE('',*,*,#384,.F.);
#386=EDGE_LOOP('',(#378,#379,#381,#383,#385));
#387=FACE_OUTER_BOUND('',#386,.F.);
#388=ADVANCED_FACE('',(#387),#377,.F.);
#389=CARTESIAN_POINT('',(0.E0,0.E0,2.E-1));
#390=DIRECTION('',(0.E0,0.E0,-1.E0));
#391=DIRECTION('',(0.E0,-1.E0,0.E0));
#392=AXIS2_PLACEMENT_3D('',#389,#390,#391);
#393=CYLINDRICAL_SURFACE('',#392,3.5E0);
#394=ORIENTED_EDGE('',*,*,#380,.T.);
#396=ORIENTED_EDGE('',*,*,#395,.T.);
#398=ORIENTED_EDGE('',*,*,#397,.T.);
#400=ORIENTED_EDGE('',*,*,#399,.F.);
#402=ORIENTED_EDGE('',*,*,#401,.F.);
#403=EDGE_LOOP('',(#394,#396,#398,#400,#402));
#404=FACE_OUTER_BOUND('',#403,.F.);
#405=ADVANCED_FACE('',(#404),#393,.T.);
#406=CARTESIAN_POINT('',(0.E0,0.E0,-2.E0));
#407=DIRECTION('',(0.E0,0.E0,-1.E0));
#408=DIRECTION('',(0.E0,-1.E0,0.E0));
#409=AXIS2_PLACEMENT_3D('',#406,#407,#408);
#410=TOROIDAL_SURFACE('',#409,4.5E0,1.E0);
#412=ORIENTED_EDGE('',*,*,#411,.F.);
#413=ORIENTED_EDGE('',*,*,#365,.T.);
#414=ORIENTED_EDGE('',*,*,#384,.T.);
#415=ORIENTED_EDGE('',*,*,#395,.F.);
#416=EDGE_LOOP('',(#412,#413,#414,#415));
#417=FACE_OUTER_BOUND('',#416,.F.);
#418=ADVANCED_FACE('',(#417),#410,.F.);
#419=CARTESIAN_POINT('',(5.661011266884E0,1.007696103107E0,0.E0));
#420=DIRECTION('',(-4.226182617407E-1,9.063077870367E-1,0.E0));
#421=DIRECTION('',(-9.063077870367E-1,-4.226182617407E-1,0.E0));
#422=AXIS2_PLACEMENT_3D('',#419,#420,#421);
#423=PLANE('',#422);
#424=ORIENTED_EDGE('',*,*,#335,.F.);
#425=ORIENTED_EDGE('',*,*,#350,.T.);
#426=ORIENTED_EDGE('',*,*,#367,.T.);
#427=ORIENTED_EDGE('',*,*,#411,.T.);
#428=ORIENTED_EDGE('',*,*,#316,.F.);
#429=ORIENTED_EDGE('',*,*,#303,.T.);
#430=EDGE_LOOP('',(#424,#425,#426,#427,#428,#429));
#431=FACE_OUTER_BOUND('',#430,.F.);
#432=ADVANCED_FACE('',(#431),#423,.F.);
#433=CARTESIAN_POINT('',(0.E0,0.E0,2.E-1));
#434=DIRECTION('',(0.E0,0.E0,-1.E0));
#435=DIRECTION('',(0.E0,-1.E0,0.E0));
#436=AXIS2_PLACEMENT_3D('',#433,#434,#435);
#437=CYLINDRICAL_SURFACE('',#436,3.5E0);
#438=ORIENTED_EDGE('',*,*,#401,.T.);
#440=ORIENTED_EDGE('',*,*,#439,.T.);
#441=ORIENTED_EDGE('',*,*,#397,.F.);
#442=ORIENTED_EDGE('',*,*,#382,.F.);
#443=EDGE_LOOP('',(#438,#440,#441,#442));
#444=FACE_OUTER_BOUND('',#443,.F.);
#445=ADVANCED_FACE('',(#444),#437,.T.);
#446=CARTESIAN_POINT('',(0.E0,0.E0,-3.75E0));
#447=DIRECTION('',(0.E0,0.E0,1.E0));
#448=DIRECTION('',(0.E0,1.E0,0.E0));
#449=AXIS2_PLACEMENT_3D('',#446,#447,#448);
#450=CONICAL_SURFACE('',#449,3.409007441433E0,2.E1);
#452=ORIENTED_EDGE('',*,*,#451,.T.);
#454=ORIENTED_EDGE('',*,*,#453,.T.);
#456=ORIENTED_EDGE('',*,*,#455,.F.);
#457=ORIENTED_EDGE('',*,*,#439,.F.);
#458=EDGE_LOOP('',(#452,#454,#456,#457));
#459=FACE_OUTER_BOUND('',#458,.F.);
#460=ADVANCED_FACE('',(#459),#450,.T.);
#461=CARTESIAN_POINT('',(0.E0,0.E0,-3.75E0));
#462=DIRECTION('',(0.E0,0.E0,1.E0));
#463=DIRECTION('',(0.E0,1.E0,0.E0));
#464=AXIS2_PLACEMENT_3D('',#461,#462,#463);
#465=CONICAL_SURFACE('',#464,3.409007441433E0,2.E1);
#466=ORIENTED_EDGE('',*,*,#451,.F.);
#467=ORIENTED_EDGE('',*,*,#399,.T.);
#468=ORIENTED_EDGE('',*,*,#455,.T.);
#470=ORIENTED_EDGE('',*,*,#469,.F.);
#471=EDGE_LOOP('',(#466,#467,#468,#470));
#472=FACE_OUTER_BOUND('',#471,.F.);
#473=ADVANCED_FACE('',(#472),#465,.T.);
#474=CARTESIAN_POINT('',(0.E0,0.E0,-4.E0));
#475=DIRECTION('',(0.E0,0.E0,-1.E0));
#476=DIRECTION('',(0.E0,-1.E0,0.E0));
#477=AXIS2_PLACEMENT_3D('',#474,#475,#476);
#478=PLANE('',#477);
#479=ORIENTED_EDGE('',*,*,#453,.F.);
#480=ORIENTED_EDGE('',*,*,#469,.T.);
#481=EDGE_LOOP('',(#479,#480));
#482=FACE_OUTER_BOUND('',#481,.F.);
#484=ORIENTED_EDGE('',*,*,#483,.F.);
#486=ORIENTED_EDGE('',*,*,#485,.T.);
#487=EDGE_LOOP('',(#484,#486));
#488=FACE_BOUND('',#487,.F.);
#489=ADVANCED_FACE('',(#482,#488),#478,.T.);
#490=CARTESIAN_POINT('',(0.E0,0.E0,-3.825E0));
#491=DIRECTION('',(0.E0,0.E0,-1.E0));
#492=DIRECTION('',(0.E0,-1.E0,0.E0));
#493=AXIS2_PLACEMENT_3D('',#490,#491,#492);
#494=CONICAL_SURFACE('',#493,2.695E0,4.5E1);
#496=ORIENTED_EDGE('',*,*,#495,.F.);
#497=ORIENTED_EDGE('',*,*,#483,.T.);
#499=ORIENTED_EDGE('',*,*,#498,.T.);
#501=ORIENTED_EDGE('',*,*,#500,.F.);
#502=EDGE_LOOP('',(#496,#497,#499,#501));
#503=FACE_OUTER_BOUND('',#502,.F.);
#504=ADVANCED_FACE('',(#503),#494,.F.);
#505=CARTESIAN_POINT('',(0.E0,0.E0,-3.825E0));
#506=DIRECTION('',(0.E0,0.E0,-1.E0));
#507=DIRECTION('',(0.E0,-1.E0,0.E0));
#508=AXIS2_PLACEMENT_3D('',#505,#506,#507);
#509=CONICAL_SURFACE('',#508,2.695E0,4.5E1);
#510=ORIENTED_EDGE('',*,*,#495,.T.);
#512=ORIENTED_EDGE('',*,*,#511,.T.);
#513=ORIENTED_EDGE('',*,*,#498,.F.);
#514=ORIENTED_EDGE('',*,*,#485,.F.);
#515=EDGE_LOOP('',(#510,#512,#513,#514));
#516=FACE_OUTER_BOUND('',#515,.F.);
#517=ADVANCED_FACE('',(#516),#509,.F.);
#518=CARTESIAN_POINT('',(0.E0,0.E0,2.E-1));
#519=DIRECTION('',(0.E0,0.E0,-1.E0));
#520=DIRECTION('',(0.E0,-1.E0,0.E0));
#521=AXIS2_PLACEMENT_3D('',#518,#519,#520);
#522=CYLINDRICAL_SURFACE('',#521,2.52E0);
#524=ORIENTED_EDGE('',*,*,#523,.T.);
#525=ORIENTED_EDGE('',*,*,#283,.T.);
#527=ORIENTED_EDGE('',*,*,#526,.F.);
#528=ORIENTED_EDGE('',*,*,#511,.F.);
#529=EDGE_LOOP('',(#524,#525,#527,#528));
#530=FACE_OUTER_BOUND('',#529,.F.);
#531=ADVANCED_FACE('',(#530),#522,.F.);
#532=CARTESIAN_POINT('',(0.E0,0.E0,2.E-1));
#533=DIRECTION('',(0.E0,0.E0,-1.E0));
#534=DIRECTION('',(0.E0,-1.E0,0.E0));
#535=AXIS2_PLACEMENT_3D('',#532,#533,#534);
#536=CYLINDRICAL_SURFACE('',#535,2.52E0);
#537=ORIENTED_EDGE('',*,*,#523,.F.);
#538=ORIENTED_EDGE('',*,*,#500,.T.);
#539=ORIENTED_EDGE('',*,*,#526,.T.);
#540=ORIENTED_EDGE('',*,*,#298,.F.);
#541=EDGE_LOOP('',(#537,#538,#539,#540));
#542=FACE_OUTER_BOUND('',#541,.F.);
#543=ADVANCED_FACE('',(#542),#536,.F.);
#544=CLOSED_SHELL('',(#287,#307,#326,#342,#356,#372,#388,#405,#418,#432,#445,
#460,#473,#489,#504,#517,#531,#543));
#545=MANIFOLD_SOLID_BREP('',#544);
#547=DIMENSIONAL_EXPONENTS(0.E0,0.E0,0.E0,0.E0,0.E0,0.E0,0.E0);
#549=PLANE_ANGLE_MEASURE_WITH_UNIT(PLANE_ANGLE_MEASURE(1.745329251994E-2),#548);
#550=(CONVERSION_BASED_UNIT('DEGREE',#549)NAMED_UNIT(*)PLANE_ANGLE_UNIT());
#552=UNCERTAINTY_MEASURE_WITH_UNIT(LENGTH_MEASURE(1.674746429908E-3),#546,
'closure',
'Maximum model space distance between geometric entities at asserted connectivities');
#553=(GEOMETRIC_REPRESENTATION_CONTEXT(3)GLOBAL_UNCERTAINTY_ASSIGNED_CONTEXT((
#552))GLOBAL_UNIT_ASSIGNED_CONTEXT((#546,#550,#551))REPRESENTATION_CONTEXT
('ID1','3'));
#555=APPLICATION_CONTEXT(
'CONFIGURATION CONTROLLED 3D DESIGNS OF MECHANICAL PARTS AND ASSEMBLIES');
#556=APPLICATION_PROTOCOL_DEFINITION('international standard',
'config_control_design',1994,#555);
#557=DESIGN_CONTEXT('',#555,'design');
#558=MECHANICAL_CONTEXT('',#555,'mechanical');
#559=PRODUCT('PBG__STEPVORLAGE','PBG__STEPVORLAGE','NOT SPECIFIED',(#558));
#560=PRODUCT_DEFINITION_FORMATION_WITH_SPECIFIED_SOURCE('1','LAST_VERSION',#559,
.MADE.);
#564=PRODUCT_CATEGORY('part','');
#565=PRODUCT_RELATED_PRODUCT_CATEGORY('detail','',(#559));
#566=PRODUCT_CATEGORY_RELATIONSHIP('','',#564,#565);
#567=SECURITY_CLASSIFICATION_LEVEL('unclassified');
#568=SECURITY_CLASSIFICATION('','',#567);
#569=CC_DESIGN_SECURITY_CLASSIFICATION(#568,(#560));
#570=APPROVAL_STATUS('approved');
#571=APPROVAL(#570,'');
#572=CC_DESIGN_APPROVAL(#571,(#568,#560,#561));
#573=CALENDAR_DATE(116,9,8);
#574=COORDINATED_UNIVERSAL_TIME_OFFSET(2,0,.AHEAD.);
#575=LOCAL_TIME(9,11,2.E0,#574);
#576=DATE_AND_TIME(#573,#575);
#577=APPROVAL_DATE_TIME(#576,#571);
#578=DATE_TIME_ROLE('creation_date');
#579=CC_DESIGN_DATE_AND_TIME_ASSIGNMENT(#576,#578,(#561));
#580=DATE_TIME_ROLE('classification_date');
#581=CC_DESIGN_DATE_AND_TIME_ASSIGNMENT(#576,#580,(#568));
#582=PERSON('UNSPECIFIED','UNSPECIFIED',$,$,$,$);
#583=ORGANIZATION('UNSPECIFIED','UNSPECIFIED','UNSPECIFIED');
#584=PERSON_AND_ORGANIZATION(#582,#583);
#585=APPROVAL_ROLE('approver');
#586=APPROVAL_PERSON_ORGANIZATION(#584,#571,#585);
#587=PERSON_AND_ORGANIZATION_ROLE('creator');
#588=CC_DESIGN_PERSON_AND_ORGANIZATION_ASSIGNMENT(#584,#587,(#560,#561));
#589=PERSON_AND_ORGANIZATION_ROLE('design_supplier');
#590=CC_DESIGN_PERSON_AND_ORGANIZATION_ASSIGNMENT(#584,#589,(#560));
#591=PERSON_AND_ORGANIZATION_ROLE('classification_officer');
#592=CC_DESIGN_PERSON_AND_ORGANIZATION_ASSIGNMENT(#584,#591,(#568));
#593=PERSON_AND_ORGANIZATION_ROLE('design_owner');
#594=CC_DESIGN_PERSON_AND_ORGANIZATION_ASSIGNMENT(#584,#593,(#559));
#5=CIRCLE('',#4,2.52E0);
#13=B_SPLINE_CURVE_WITH_KNOTS('',3,(#6,#7,#8,#9,#10,#11,#12),.UNSPECIFIED.,.F.,
.F.,(4,1,1,1,4),(0.E0,2.5E-1,5.E-1,7.5E-1,1.E0),.UNSPECIFIED.);
#18=CIRCLE('',#17,2.E0);
#23=CIRCLE('',#22,2.52E0);
#28=CIRCLE('',#27,2.E0);
#36=B_SPLINE_CURVE_WITH_KNOTS('',3,(#29,#30,#31,#32,#33,#34,#35),.UNSPECIFIED.,
.F.,.F.,(4,1,1,1,4),(0.E0,2.5E-1,5.E-1,7.5E-1,1.E0),.UNSPECIFIED.);
#53=CIRCLE('',#52,4.52E0);
#58=CIRCLE('',#57,4.52E0);
#63=CIRCLE('',#62,4.52E0);
#68=CIRCLE('',#67,5.75E0);
#77=CIRCLE('',#76,5.75E0);
#94=CIRCLE('',#93,4.5E0);
#110=B_SPLINE_CURVE_WITH_KNOTS('',3,(#95,#96,#97,#98,#99,#100,#101,#102,#103,
#104,#105,#106,#107,#108,#109),.UNSPECIFIED.,.F.,.F.,(4,1,1,1,1,1,1,1,1,1,1,1,
4),(0.E0,8.333333333333E-2,1.666666666667E-1,2.5E-1,3.333333333333E-1,
4.166666666667E-1,5.E-1,5.833333333333E-1,6.666666666667E-1,7.5E-1,
8.333333333333E-1,9.166666666667E-1,1.E0),.UNSPECIFIED.);
#115=CIRCLE('',#114,3.5E0);
#120=CIRCLE('',#119,3.5E0);
#144=B_SPLINE_CURVE_WITH_KNOTS('',3,(#129,#130,#131,#132,#133,#134,#135,#136,
#137,#138,#139,#140,#141,#142,#143),.UNSPECIFIED.,.F.,.F.,(4,1,1,1,1,1,1,1,1,1,
1,1,4),(0.E0,8.333333333333E-2,1.666666666667E-1,2.5E-1,3.333333333333E-1,
4.166666666667E-1,5.E-1,5.833333333333E-1,6.666666666667E-1,7.5E-1,
8.333333333333E-1,9.166666666667E-1,1.E0),.UNSPECIFIED.);
#149=CIRCLE('',#148,4.5E0);
#154=CIRCLE('',#153,1.E0);
#159=CIRCLE('',#158,3.5E0);
#164=CIRCLE('',#163,3.5E0);
#173=CIRCLE('',#172,3.5E0);
#182=CIRCLE('',#181,3.318014882867E0);
#187=CIRCLE('',#186,3.318014882867E0);
#196=CIRCLE('',#195,2.87E0);
#205=CIRCLE('',#204,2.87E0);
#210=CIRCLE('',#209,2.52E0);
#219=CIRCLE('',#218,2.52E0);
#277=EDGE_CURVE('',#235,#249,#18,.T.);
#279=EDGE_CURVE('',#249,#251,#58,.T.);
#281=EDGE_CURVE('',#247,#251,#28,.T.);
#283=EDGE_CURVE('',#235,#247,#5,.T.);
#293=EDGE_CURVE('',#256,#270,#13,.T.);
#295=EDGE_CURVE('',#249,#256,#63,.T.);
#298=EDGE_CURVE('',#235,#247,#23,.T.);
#301=EDGE_CURVE('',#261,#251,#53,.T.);
#303=EDGE_CURVE('',#270,#261,#36,.T.);
#313=EDGE_CURVE('',#256,#257,#44,.T.);
#316=EDGE_CURVE('',#270,#271,#40,.T.);
#318=EDGE_CURVE('',#271,#264,#110,.T.);
#320=EDGE_CURVE('',#264,#265,#85,.T.);
#322=EDGE_CURVE('',#257,#265,#81,.T.);
#333=EDGE_CURVE('',#260,#257,#77,.T.);
#335=EDGE_CURVE('',#260,#261,#48,.T.);
#348=EDGE_CURVE('',#265,#268,#68,.T.);
#350=EDGE_CURVE('',#260,#268,#72,.T.);
#363=EDGE_CURVE('',#253,#264,#94,.T.);
#365=EDGE_CURVE('',#269,#253,#149,.T.);
#367=EDGE_CURVE('',#268,#269,#89,.T.);
#380=EDGE_CURVE('',#226,#271,#115,.T.);
#382=EDGE_CURVE('',#226,#238,#159,.T.);
#384=EDGE_CURVE('',#253,#238,#154,.T.);
#395=EDGE_CURVE('',#271,#238,#120,.T.);
#397=EDGE_CURVE('',#238,#239,#124,.T.);
#399=EDGE_CURVE('',#227,#239,#173,.T.);
#401=EDGE_CURVE('',#226,#227,#128,.T.);
#411=EDGE_CURVE('',#269,#271,#144,.T.);
#439=EDGE_CURVE('',#227,#239,#164,.T.);
#451=EDGE_CURVE('',#227,#229,#168,.T.);
#453=EDGE_CURVE('',#229,#241,#182,.T.);
#455=EDGE_CURVE('',#239,#241,#177,.T.);
#469=EDGE_CURVE('',#229,#241,#187,.T.);
#483=EDGE_CURVE('',#232,#244,#196,.T.);
#485=EDGE_CURVE('',#232,#244,#205,.T.);
#495=EDGE_CURVE('',#232,#233,#191,.T.);
#498=EDGE_CURVE('',#244,#245,#200,.T.);
#500=EDGE_CURVE('',#233,#245,#219,.T.);
#511=EDGE_CURVE('',#233,#245,#210,.T.);
#523=EDGE_CURVE('',#233,#235,#214,.T.);
#526=EDGE_CURVE('',#245,#247,#223,.T.);
#546=(LENGTH_UNIT()NAMED_UNIT(*)SI_UNIT(.MILLI.,.METRE.));
#548=(NAMED_UNIT(*)PLANE_ANGLE_UNIT()SI_UNIT($,.RADIAN.));
#551=(NAMED_UNIT(*)SI_UNIT($,.STERADIAN.)SOLID_ANGLE_UNIT());
#554=ADVANCED_BREP_SHAPE_REPRESENTATION('',(#545),#553);
#561=PRODUCT_DEFINITION('design','',#560,#557);
#562=PRODUCT_DEFINITION_SHAPE('','SHAPE FOR PBG__STEPVORLAGE.',#561);
#563=SHAPE_DEFINITION_REPRESENTATION(#562,#554);
ENDSEC;
END-ISO-10303-21;
