ISO-10303-21;
HEADER;
FILE_DESCRIPTION((''),'2;1');
FILE_NAME('PBG__STEPVORLAGE','2016-08-09T',('deusss58'),(''),
'PRO/ENGINEER BY PARAMETRIC TECHNOLOGY CORPORATION, 2014430',
'PRO/ENGINEER BY PARAMETRIC TECHNOLOGY CORPORATION, 2014430','');
FILE_SCHEMA(('CONFIG_CONTROL_DESIGN'));
ENDSEC;
DATA;
#1=CARTESIAN_POINT('',(0.E0,0.E0,-3.E0));
#2=DIRECTION('',(0.E0,0.E0,-1.E0));
#3=DIRECTION('',(0.E0,-1.E0,0.E0));
#4=AXIS2_PLACEMENT_3D('',#1,#2,#3);
#6=CARTESIAN_POINT('',(1.802367990145E1,-4.773497775448E-1,0.E0));
#7=CARTESIAN_POINT('',(1.790780244175E1,-4.233152306806E-1,0.E0));
#8=CARTESIAN_POINT('',(1.767743452894E1,-3.158929087429E-1,-1.362036854618E-2));
#9=CARTESIAN_POINT('',(1.733327215940E1,-1.554073601790E-1,-7.490311706318E-2));
#10=CARTESIAN_POINT('',(1.711029981335E1,-5.143364765658E-2,
-1.420386003943E-1));
#11=CARTESIAN_POINT('',(1.7E1,0.E0,-1.823591428289E-1));
#13=CARTESIAN_POINT('',(0.E0,-1.803E1,-3.E0));
#14=DIRECTION('',(1.E0,0.E0,0.E0));
#15=DIRECTION('',(0.E0,1.E0,0.E0));
#16=AXIS2_PLACEMENT_3D('',#13,#14,#15);
#18=CARTESIAN_POINT('',(0.E0,0.E0,-3.E0));
#19=DIRECTION('',(0.E0,0.E0,1.E0));
#20=DIRECTION('',(0.E0,-1.E0,0.E0));
#21=AXIS2_PLACEMENT_3D('',#18,#19,#20);
#23=CARTESIAN_POINT('',(0.E0,1.803E1,-3.E0));
#24=DIRECTION('',(-1.E0,0.E0,0.E0));
#25=DIRECTION('',(0.E0,-1.E0,0.E0));
#26=AXIS2_PLACEMENT_3D('',#23,#24,#25);
#28=CARTESIAN_POINT('',(1.7E1,0.E0,-1.823591428289E-1));
#29=CARTESIAN_POINT('',(1.711017643961E1,5.137611753894E-2,-1.420837001618E-1));
#30=CARTESIAN_POINT('',(1.733297611960E1,1.552693145538E-1,-7.497522642916E-2));
#31=CARTESIAN_POINT('',(1.767725671098E1,3.158099908660E-1,-1.363464923525E-2));
#32=CARTESIAN_POINT('',(1.790772662045E1,4.232798746247E-1,0.E0));
#33=CARTESIAN_POINT('',(1.802367990145E1,4.773497775448E-1,0.E0));
#35=DIRECTION('',(0.E0,0.E0,-1.E0));
#36=VECTOR('',#35,2.817640857171E0);
#37=CARTESIAN_POINT('',(1.7E1,0.E0,-1.823591428289E-1));
#38=LINE('',#37,#36);
#39=DIRECTION('',(9.063077870367E-1,-4.226182617407E-1,0.E0));
#40=VECTOR('',#39,3.196046966564E0);
#41=CARTESIAN_POINT('',(1.802367990145E1,-4.773497775448E-1,0.E0));
#42=LINE('',#41,#40);
#43=DIRECTION('',(-9.063077870367E-1,-4.226182617407E-1,0.E0));
#44=VECTOR('',#43,3.196046966564E0);
#45=CARTESIAN_POINT('',(2.092028215498E1,1.828057590996E0,0.E0));
#46=LINE('',#45,#44);
#47=CARTESIAN_POINT('',(0.E0,0.E0,0.E0));
#48=DIRECTION('',(0.E0,0.E0,1.E0));
#49=DIRECTION('',(9.996494676344E-1,2.647530657486E-2,0.E0));
#50=AXIS2_PLACEMENT_3D('',#47,#48,#49);
#52=CARTESIAN_POINT('',(0.E0,0.E0,0.E0));
#53=DIRECTION('',(0.E0,0.E0,-1.E0));
#54=DIRECTION('',(0.E0,-1.E0,0.E0));
#55=AXIS2_PLACEMENT_3D('',#52,#53,#54);
#57=CARTESIAN_POINT('',(0.E0,0.E0,0.E0));
#58=DIRECTION('',(0.E0,0.E0,1.E0));
#59=DIRECTION('',(0.E0,-1.E0,0.E0));
#60=AXIS2_PLACEMENT_3D('',#57,#58,#59);
#62=CARTESIAN_POINT('',(0.E0,0.E0,-2.E0));
#63=DIRECTION('',(0.E0,0.E0,-1.E0));
#64=DIRECTION('',(9.962039121419E-1,-8.705036147599E-2,0.E0));
#65=AXIS2_PLACEMENT_3D('',#62,#63,#64);
#67=DIRECTION('',(0.E0,0.E0,-1.E0));
#68=VECTOR('',#67,2.E0);
#69=CARTESIAN_POINT('',(2.092028215498E1,1.828057590996E0,0.E0));
#70=LINE('',#69,#68);
#71=CARTESIAN_POINT('',(0.E0,0.E0,0.E0));
#72=DIRECTION('',(0.E0,0.E0,1.E0));
#73=DIRECTION('',(9.962039121419E-1,8.705036147599E-2,0.E0));
#74=AXIS2_PLACEMENT_3D('',#71,#72,#73);
#76=DIRECTION('',(0.E0,0.E0,-1.E0));
#77=VECTOR('',#76,2.E0);
#78=CARTESIAN_POINT('',(2.092028215498E1,-1.828057590996E0,0.E0));
#79=LINE('',#78,#77);
#80=DIRECTION('',(9.063077870367E-1,-4.226182617407E-1,0.E0));
#81=VECTOR('',#80,3.228761102902E0);
#82=CARTESIAN_POINT('',(1.799403082494E1,-4.635241861116E-1,-2.E0));
#83=LINE('',#82,#81);
#84=DIRECTION('',(-9.063077870367E-1,-4.226182617407E-1,0.E0));
#85=VECTOR('',#84,3.228761102902E0);
#86=CARTESIAN_POINT('',(2.092028215498E1,1.828057590996E0,-2.E0));
#87=LINE('',#86,#85);
#88=CARTESIAN_POINT('',(0.E0,0.E0,-2.E0));
#89=DIRECTION('',(0.E0,0.E0,1.E0));
#90=DIRECTION('',(0.E0,1.E0,0.E0));
#91=AXIS2_PLACEMENT_3D('',#88,#89,#90);
#93=CARTESIAN_POINT('',(1.7E1,0.E0,-3.E0));
#94=CARTESIAN_POINT('',(1.7E1,0.E0,-2.931178564675E0));
#95=CARTESIAN_POINT('',(1.701380828044E1,-6.438906913194E-3,-2.796986938115E0));
#96=CARTESIAN_POINT('',(1.707550494836E1,-3.520853564980E-2,-2.600985975142E0));
#97=CARTESIAN_POINT('',(1.717338279796E1,-8.084972648237E-2,-2.425464038378E0));
#98=CARTESIAN_POINT('',(1.730088091526E1,-1.403030749796E-1,-2.275727369349E0));
#99=CARTESIAN_POINT('',(1.745114709406E1,-2.103733449126E-1,-2.156067691580E0));
#100=CARTESIAN_POINT('',(1.761912919074E1,-2.887046830300E-1,
-2.067888086953E0));
#101=CARTESIAN_POINT('',(1.780145322225E1,-3.737237751871E-1,
-2.012898992284E0));
#102=CARTESIAN_POINT('',(1.792867586925E1,-4.330486697759E-1,-2.E0));
#103=CARTESIAN_POINT('',(1.799403082494E1,-4.635241861116E-1,-2.E0));
#105=CARTESIAN_POINT('',(0.E0,0.E0,-3.E0));
#106=DIRECTION('',(0.E0,0.E0,1.E0));
#107=DIRECTION('',(0.E0,-1.E0,0.E0));
#108=AXIS2_PLACEMENT_3D('',#105,#106,#107);
#110=CARTESIAN_POINT('',(0.E0,0.E0,-3.E0));
#111=DIRECTION('',(0.E0,0.E0,1.E0));
#112=DIRECTION('',(1.E0,0.E0,0.E0));
#113=AXIS2_PLACEMENT_3D('',#110,#111,#112);
#115=DIRECTION('',(0.E0,0.E0,-1.E0));
#116=VECTOR('',#115,2.2E1);
#117=CARTESIAN_POINT('',(0.E0,1.7E1,-3.E0));
#118=LINE('',#117,#116);
#119=DIRECTION('',(0.E0,0.E0,-1.E0));
#120=VECTOR('',#119,2.2E1);
#121=CARTESIAN_POINT('',(0.E0,-1.7E1,-3.E0));
#122=LINE('',#121,#120);
#123=CARTESIAN_POINT('',(1.799403082494E1,4.635241861116E-1,-2.E0));
#124=CARTESIAN_POINT('',(1.792853247217E1,4.329818026172E-1,-2.E0));
#125=CARTESIAN_POINT('',(1.780098979355E1,3.735076748346E-1,-2.012948055039E0));
#126=CARTESIAN_POINT('',(1.761793036114E1,2.881456596055E-1,-2.068320702217E0));
#127=CARTESIAN_POINT('',(1.744942624076E1,2.095708978420E-1,-2.157147680989E0));
#128=CARTESIAN_POINT('',(1.729916392462E1,1.395024290953E-1,-2.277387307451E0));
#129=CARTESIAN_POINT('',(1.717219274726E1,8.029479672499E-2,-2.427247189271E0));
#130=CARTESIAN_POINT('',(1.707502535750E1,3.498489875622E-2,-2.602259644623E0));
#131=CARTESIAN_POINT('',(1.701376071876E1,6.416728539332E-3,-2.797457025780E0));
#132=CARTESIAN_POINT('',(1.7E1,0.E0,-2.931322770159E0));
#133=CARTESIAN_POINT('',(1.7E1,0.E0,-3.E0));
#135=CARTESIAN_POINT('',(0.E0,0.E0,-2.E0));
#136=DIRECTION('',(0.E0,0.E0,1.E0));
#137=DIRECTION('',(9.996683791633E-1,2.575134367287E-2,0.E0));
#138=AXIS2_PLACEMENT_3D('',#135,#136,#137);
#140=CARTESIAN_POINT('',(0.E0,1.8E1,-3.E0));
#141=DIRECTION('',(1.E0,0.E0,0.E0));
#142=DIRECTION('',(0.E0,0.E0,1.E0));
#143=AXIS2_PLACEMENT_3D('',#140,#141,#142);
#145=CARTESIAN_POINT('',(0.E0,0.E0,-3.E0));
#146=DIRECTION('',(0.E0,0.E0,-1.E0));
#147=DIRECTION('',(0.E0,-1.E0,0.E0));
#148=AXIS2_PLACEMENT_3D('',#145,#146,#147);
#150=CARTESIAN_POINT('',(0.E0,0.E0,-2.5E1));
#151=DIRECTION('',(0.E0,0.E0,-1.E0));
#152=DIRECTION('',(0.E0,-1.E0,0.E0));
#153=AXIS2_PLACEMENT_3D('',#150,#151,#152);
#155=DIRECTION('',(0.E0,3.420201433257E-1,-9.396926207859E-1));
#156=VECTOR('',#155,1.064177772476E0);
#157=CARTESIAN_POINT('',(0.E0,-1.7E1,-2.5E1));
#158=LINE('',#157,#156);
#159=CARTESIAN_POINT('',(0.E0,0.E0,-2.5E1));
#160=DIRECTION('',(0.E0,0.E0,1.E0));
#161=DIRECTION('',(0.E0,-1.E0,0.E0));
#162=AXIS2_PLACEMENT_3D('',#159,#160,#161);
#164=DIRECTION('',(0.E0,-3.420201433257E-1,-9.396926207859E-1));
#165=VECTOR('',#164,1.064177772476E0);
#166=CARTESIAN_POINT('',(0.E0,1.7E1,-2.5E1));
#167=LINE('',#166,#165);
#168=CARTESIAN_POINT('',(0.E0,0.E0,-2.6E1));
#169=DIRECTION('',(0.E0,0.E0,-1.E0));
#170=DIRECTION('',(0.E0,-1.E0,0.E0));
#171=AXIS2_PLACEMENT_3D('',#168,#169,#170);
#173=CARTESIAN_POINT('',(0.E0,0.E0,-2.6E1));
#174=DIRECTION('',(0.E0,0.E0,1.E0));
#175=DIRECTION('',(0.E0,-1.E0,0.E0));
#176=AXIS2_PLACEMENT_3D('',#173,#174,#175);
#178=DIRECTION('',(0.E0,7.071067811865E-1,7.071067811866E-1));
#179=VECTOR('',#178,5.656854249492E-1);
#180=CARTESIAN_POINT('',(0.E0,-1.543E1,-2.6E1));
#181=LINE('',#180,#179);
#182=CARTESIAN_POINT('',(0.E0,0.E0,-2.6E1));
#183=DIRECTION('',(0.E0,0.E0,1.E0));
#184=DIRECTION('',(0.E0,-1.E0,0.E0));
#185=AXIS2_PLACEMENT_3D('',#182,#183,#184);
#187=DIRECTION('',(0.E0,-7.071067811865E-1,7.071067811866E-1));
#188=VECTOR('',#187,5.656854249492E-1);
#189=CARTESIAN_POINT('',(0.E0,1.543E1,-2.6E1));
#190=LINE('',#189,#188);
#191=CARTESIAN_POINT('',(0.E0,0.E0,-2.6E1));
#192=DIRECTION('',(0.E0,0.E0,-1.E0));
#193=DIRECTION('',(0.E0,-1.E0,0.E0));
#194=AXIS2_PLACEMENT_3D('',#191,#192,#193);
#196=CARTESIAN_POINT('',(0.E0,0.E0,-2.56E1));
#197=DIRECTION('',(0.E0,0.E0,-1.E0));
#198=DIRECTION('',(0.E0,-1.E0,0.E0));
#199=AXIS2_PLACEMENT_3D('',#196,#197,#198);
#201=DIRECTION('',(0.E0,0.E0,1.E0));
#202=VECTOR('',#201,2.26E1);
#203=CARTESIAN_POINT('',(0.E0,-1.503E1,-2.56E1));
#204=LINE('',#203,#202);
#205=CARTESIAN_POINT('',(0.E0,0.E0,-2.56E1));
#206=DIRECTION('',(0.E0,0.E0,1.E0));
#207=DIRECTION('',(0.E0,-1.E0,0.E0));
#208=AXIS2_PLACEMENT_3D('',#205,#206,#207);
#210=DIRECTION('',(0.E0,0.E0,1.E0));
#211=VECTOR('',#210,2.26E1);
#212=CARTESIAN_POINT('',(0.E0,1.503E1,-2.56E1));
#213=LINE('',#212,#211);
#214=CARTESIAN_POINT('',(0.E0,-1.7E1,-3.E0));
#215=CARTESIAN_POINT('',(0.E0,-1.7E1,-2.5E1));
#216=VERTEX_POINT('',#214);
#217=VERTEX_POINT('',#215);
#218=CARTESIAN_POINT('',(0.E0,-1.663602976573E1,-2.6E1));
#219=VERTEX_POINT('',#218);
#220=CARTESIAN_POINT('',(0.E0,-1.543E1,-2.6E1));
#221=CARTESIAN_POINT('',(0.E0,-1.503E1,-2.56E1));
#222=VERTEX_POINT('',#220);
#223=VERTEX_POINT('',#221);
#224=CARTESIAN_POINT('',(0.E0,-1.503E1,-3.E0));
#225=VERTEX_POINT('',#224);
#226=CARTESIAN_POINT('',(0.E0,1.7E1,-3.E0));
#227=CARTESIAN_POINT('',(0.E0,1.7E1,-2.5E1));
#228=VERTEX_POINT('',#226);
#229=VERTEX_POINT('',#227);
#230=CARTESIAN_POINT('',(0.E0,1.663602976573E1,-2.6E1));
#231=VERTEX_POINT('',#230);
#232=CARTESIAN_POINT('',(0.E0,1.543E1,-2.6E1));
#233=CARTESIAN_POINT('',(0.E0,1.503E1,-2.56E1));
#234=VERTEX_POINT('',#232);
#235=VERTEX_POINT('',#233);
#236=CARTESIAN_POINT('',(0.E0,1.503E1,-3.E0));
#237=VERTEX_POINT('',#236);
#238=CARTESIAN_POINT('',(0.E0,-1.803E1,0.E0));
#239=VERTEX_POINT('',#238);
#240=CARTESIAN_POINT('',(0.E0,1.803E1,0.E0));
#241=VERTEX_POINT('',#240);
#242=CARTESIAN_POINT('',(0.E0,1.8E1,-2.E0));
#243=VERTEX_POINT('',#242);
#244=CARTESIAN_POINT('',(1.802367990145E1,-4.773497775448E-1,0.E0));
#245=CARTESIAN_POINT('',(2.092028215498E1,-1.828057590996E0,0.E0));
#246=VERTEX_POINT('',#244);
#247=VERTEX_POINT('',#245);
#248=CARTESIAN_POINT('',(2.092028215498E1,1.828057590996E0,0.E0));
#249=CARTESIAN_POINT('',(1.802367990145E1,4.773497775448E-1,0.E0));
#250=VERTEX_POINT('',#248);
#251=VERTEX_POINT('',#249);
#252=CARTESIAN_POINT('',(1.799403082494E1,-4.635241861116E-1,-2.E0));
#253=CARTESIAN_POINT('',(2.092028215498E1,-1.828057590996E0,-2.E0));
#254=VERTEX_POINT('',#252);
#255=VERTEX_POINT('',#253);
#256=CARTESIAN_POINT('',(2.092028215498E1,1.828057590996E0,-2.E0));
#257=CARTESIAN_POINT('',(1.799403082494E1,4.635241861116E-1,-2.E0));
#258=VERTEX_POINT('',#256);
#259=VERTEX_POINT('',#257);
#260=VERTEX_POINT('',#11);
#261=VERTEX_POINT('',#93);
#262=CARTESIAN_POINT('',(0.E0,0.E0,-3.E0));
#263=DIRECTION('',(0.E0,0.E0,-1.E0));
#264=DIRECTION('',(0.E0,-1.E0,0.E0));
#265=AXIS2_PLACEMENT_3D('',#262,#263,#264);
#266=TOROIDAL_SURFACE('',#265,1.803E1,3.E0);
#268=ORIENTED_EDGE('',*,*,#267,.T.);
#270=ORIENTED_EDGE('',*,*,#269,.T.);
#272=ORIENTED_EDGE('',*,*,#271,.F.);
#274=ORIENTED_EDGE('',*,*,#273,.F.);
#275=EDGE_LOOP('',(#268,#270,#272,#274));
#276=FACE_OUTER_BOUND('',#275,.F.);
#277=ADVANCED_FACE('',(#276),#266,.T.);
#278=CARTESIAN_POINT('',(0.E0,0.E0,-3.E0));
#279=DIRECTION('',(0.E0,0.E0,-1.E0));
#280=DIRECTION('',(0.E0,-1.E0,0.E0));
#281=AXIS2_PLACEMENT_3D('',#278,#279,#280);
#282=TOROIDAL_SURFACE('',#281,1.803E1,3.E0);
#284=ORIENTED_EDGE('',*,*,#283,.F.);
#286=ORIENTED_EDGE('',*,*,#285,.F.);
#287=ORIENTED_EDGE('',*,*,#267,.F.);
#289=ORIENTED_EDGE('',*,*,#288,.T.);
#290=ORIENTED_EDGE('',*,*,#271,.T.);
#292=ORIENTED_EDGE('',*,*,#291,.F.);
#294=ORIENTED_EDGE('',*,*,#293,.F.);
#295=EDGE_LOOP('',(#284,#286,#287,#289,#290,#292,#294));
#296=FACE_OUTER_BOUND('',#295,.F.);
#297=ADVANCED_FACE('',(#296),#282,.T.);
#298=CARTESIAN_POINT('',(1.7E1,0.E0,0.E0));
#299=DIRECTION('',(-4.226182617407E-1,-9.063077870367E-1,0.E0));
#300=DIRECTION('',(9.063077870367E-1,-4.226182617407E-1,0.E0));
#301=AXIS2_PLACEMENT_3D('',#298,#299,#300);
#302=PLANE('',#301);
#304=ORIENTED_EDGE('',*,*,#303,.F.);
#305=ORIENTED_EDGE('',*,*,#283,.T.);
#307=ORIENTED_EDGE('',*,*,#306,.T.);
#309=ORIENTED_EDGE('',*,*,#308,.T.);
#311=ORIENTED_EDGE('',*,*,#310,.T.);
#313=ORIENTED_EDGE('',*,*,#312,.F.);
#314=EDGE_LOOP('',(#304,#305,#307,#309,#311,#313));
#315=FACE_OUTER_BOUND('',#314,.F.);
#316=ADVANCED_FACE('',(#315),#302,.F.);
#317=CARTESIAN_POINT('',(0.E0,0.E0,0.E0));
#318=DIRECTION('',(0.E0,0.E0,-1.E0));
#319=DIRECTION('',(0.E0,-1.E0,0.E0));
#320=AXIS2_PLACEMENT_3D('',#317,#318,#319);
#321=PLANE('',#320);
#322=ORIENTED_EDGE('',*,*,#303,.T.);
#324=ORIENTED_EDGE('',*,*,#323,.F.);
#326=ORIENTED_EDGE('',*,*,#325,.T.);
#327=ORIENTED_EDGE('',*,*,#291,.T.);
#328=ORIENTED_EDGE('',*,*,#269,.F.);
#329=ORIENTED_EDGE('',*,*,#285,.T.);
#330=EDGE_LOOP('',(#322,#324,#326,#327,#328,#329));
#331=FACE_OUTER_BOUND('',#330,.F.);
#332=ADVANCED_FACE('',(#331),#321,.F.);
#333=CARTESIAN_POINT('',(0.E0,0.E0,1.3E0));
#334=DIRECTION('',(0.E0,0.E0,-1.E0));
#335=DIRECTION('',(0.E0,-1.E0,0.E0));
#336=AXIS2_PLACEMENT_3D('',#333,#334,#335);
#337=CYLINDRICAL_SURFACE('',#336,2.1E1);
#339=ORIENTED_EDGE('',*,*,#338,.T.);
#341=ORIENTED_EDGE('',*,*,#340,.F.);
#342=ORIENTED_EDGE('',*,*,#323,.T.);
#343=ORIENTED_EDGE('',*,*,#312,.T.);
#344=EDGE_LOOP('',(#339,#341,#342,#343));
#345=FACE_OUTER_BOUND('',#344,.F.);
#346=ADVANCED_FACE('',(#345),#337,.T.);
#347=CARTESIAN_POINT('',(0.E0,0.E0,-2.E0));
#348=DIRECTION('',(0.E0,0.E0,-1.E0));
#349=DIRECTION('',(0.E0,-1.E0,0.E0));
#350=AXIS2_PLACEMENT_3D('',#347,#348,#349);
#351=PLANE('',#350);
#352=ORIENTED_EDGE('',*,*,#310,.F.);
#354=ORIENTED_EDGE('',*,*,#353,.F.);
#356=ORIENTED_EDGE('',*,*,#355,.F.);
#358=ORIENTED_EDGE('',*,*,#357,.F.);
#359=ORIENTED_EDGE('',*,*,#338,.F.);
#360=EDGE_LOOP('',(#352,#354,#356,#358,#359));
#361=FACE_OUTER_BOUND('',#360,.F.);
#362=ADVANCED_FACE('',(#361),#351,.T.);
#363=CARTESIAN_POINT('',(0.E0,0.E0,-3.E0));
#364=DIRECTION('',(0.E0,0.E0,-1.E0));
#365=DIRECTION('',(0.E0,-1.E0,0.E0));
#366=AXIS2_PLACEMENT_3D('',#363,#364,#365);
#367=TOROIDAL_SURFACE('',#366,1.8E1,1.E0);
#368=ORIENTED_EDGE('',*,*,#353,.T.);
#369=ORIENTED_EDGE('',*,*,#308,.F.);
#371=ORIENTED_EDGE('',*,*,#370,.F.);
#373=ORIENTED_EDGE('',*,*,#372,.T.);
#375=ORIENTED_EDGE('',*,*,#374,.F.);
#376=EDGE_LOOP('',(#368,#369,#371,#373,#375));
#377=FACE_OUTER_BOUND('',#376,.F.);
#378=ADVANCED_FACE('',(#377),#367,.F.);
#379=CARTESIAN_POINT('',(0.E0,0.E0,1.3E0));
#380=DIRECTION('',(0.E0,0.E0,-1.E0));
#381=DIRECTION('',(0.E0,-1.E0,0.E0));
#382=AXIS2_PLACEMENT_3D('',#379,#380,#381);
#383=CYLINDRICAL_SURFACE('',#382,1.7E1);
#384=ORIENTED_EDGE('',*,*,#370,.T.);
#386=ORIENTED_EDGE('',*,*,#385,.T.);
#388=ORIENTED_EDGE('',*,*,#387,.T.);
#390=ORIENTED_EDGE('',*,*,#389,.F.);
#392=ORIENTED_EDGE('',*,*,#391,.F.);
#393=EDGE_LOOP('',(#384,#386,#388,#390,#392));
#394=FACE_OUTER_BOUND('',#393,.F.);
#395=ADVANCED_FACE('',(#394),#383,.T.);
#396=CARTESIAN_POINT('',(0.E0,0.E0,-3.E0));
#397=DIRECTION('',(0.E0,0.E0,-1.E0));
#398=DIRECTION('',(0.E0,-1.E0,0.E0));
#399=AXIS2_PLACEMENT_3D('',#396,#397,#398);
#400=TOROIDAL_SURFACE('',#399,1.8E1,1.E0);
#402=ORIENTED_EDGE('',*,*,#401,.F.);
#403=ORIENTED_EDGE('',*,*,#355,.T.);
#404=ORIENTED_EDGE('',*,*,#374,.T.);
#405=ORIENTED_EDGE('',*,*,#385,.F.);
#406=EDGE_LOOP('',(#402,#403,#404,#405));
#407=FACE_OUTER_BOUND('',#406,.F.);
#408=ADVANCED_FACE('',(#407),#400,.F.);
#409=CARTESIAN_POINT('',(2.092028215498E1,1.828057590996E0,0.E0));
#410=DIRECTION('',(-4.226182617407E-1,9.063077870367E-1,0.E0));
#411=DIRECTION('',(-9.063077870367E-1,-4.226182617407E-1,0.E0));
#412=AXIS2_PLACEMENT_3D('',#409,#410,#411);
#413=PLANE('',#412);
#414=ORIENTED_EDGE('',*,*,#325,.F.);
#415=ORIENTED_EDGE('',*,*,#340,.T.);
#416=ORIENTED_EDGE('',*,*,#357,.T.);
#417=ORIENTED_EDGE('',*,*,#401,.T.);
#418=ORIENTED_EDGE('',*,*,#306,.F.);
#419=ORIENTED_EDGE('',*,*,#293,.T.);
#420=EDGE_LOOP('',(#414,#415,#416,#417,#418,#419));
#421=FACE_OUTER_BOUND('',#420,.F.);
#422=ADVANCED_FACE('',(#421),#413,.F.);
#423=CARTESIAN_POINT('',(0.E0,0.E0,1.3E0));
#424=DIRECTION('',(0.E0,0.E0,-1.E0));
#425=DIRECTION('',(0.E0,-1.E0,0.E0));
#426=AXIS2_PLACEMENT_3D('',#423,#424,#425);
#427=CYLINDRICAL_SURFACE('',#426,1.7E1);
#428=ORIENTED_EDGE('',*,*,#391,.T.);
#430=ORIENTED_EDGE('',*,*,#429,.T.);
#431=ORIENTED_EDGE('',*,*,#387,.F.);
#432=ORIENTED_EDGE('',*,*,#372,.F.);
#433=EDGE_LOOP('',(#428,#430,#431,#432));
#434=FACE_OUTER_BOUND('',#433,.F.);
#435=ADVANCED_FACE('',(#434),#427,.T.);
#436=CARTESIAN_POINT('',(0.E0,0.E0,-2.55E1));
#437=DIRECTION('',(0.E0,0.E0,1.E0));
#438=DIRECTION('',(0.E0,1.E0,0.E0));
#439=AXIS2_PLACEMENT_3D('',#436,#437,#438);
#440=CONICAL_SURFACE('',#439,1.681801488287E1,2.E1);
#442=ORIENTED_EDGE('',*,*,#441,.T.);
#444=ORIENTED_EDGE('',*,*,#443,.T.);
#446=ORIENTED_EDGE('',*,*,#445,.F.);
#447=ORIENTED_EDGE('',*,*,#429,.F.);
#448=EDGE_LOOP('',(#442,#444,#446,#447));
#449=FACE_OUTER_BOUND('',#448,.F.);
#450=ADVANCED_FACE('',(#449),#440,.T.);
#451=CARTESIAN_POINT('',(0.E0,0.E0,-2.55E1));
#452=DIRECTION('',(0.E0,0.E0,1.E0));
#453=DIRECTION('',(0.E0,1.E0,0.E0));
#454=AXIS2_PLACEMENT_3D('',#451,#452,#453);
#455=CONICAL_SURFACE('',#454,1.681801488287E1,2.E1);
#456=ORIENTED_EDGE('',*,*,#441,.F.);
#457=ORIENTED_EDGE('',*,*,#389,.T.);
#458=ORIENTED_EDGE('',*,*,#445,.T.);
#460=ORIENTED_EDGE('',*,*,#459,.F.);
#461=EDGE_LOOP('',(#456,#457,#458,#460));
#462=FACE_OUTER_BOUND('',#461,.F.);
#463=ADVANCED_FACE('',(#462),#455,.T.);
#464=CARTESIAN_POINT('',(0.E0,0.E0,-2.6E1));
#465=DIRECTION('',(0.E0,0.E0,-1.E0));
#466=DIRECTION('',(0.E0,-1.E0,0.E0));
#467=AXIS2_PLACEMENT_3D('',#464,#465,#466);
#468=PLANE('',#467);
#469=ORIENTED_EDGE('',*,*,#443,.F.);
#470=ORIENTED_EDGE('',*,*,#459,.T.);
#471=EDGE_LOOP('',(#469,#470));
#472=FACE_OUTER_BOUND('',#471,.F.);
#474=ORIENTED_EDGE('',*,*,#473,.F.);
#476=ORIENTED_EDGE('',*,*,#475,.T.);
#477=EDGE_LOOP('',(#474,#476));
#478=FACE_BOUND('',#477,.F.);
#479=ADVANCED_FACE('',(#472,#478),#468,.T.);
#480=CARTESIAN_POINT('',(0.E0,0.E0,-2.58E1));
#481=DIRECTION('',(0.E0,0.E0,-1.E0));
#482=DIRECTION('',(0.E0,-1.E0,0.E0));
#483=AXIS2_PLACEMENT_3D('',#480,#481,#482);
#484=CONICAL_SURFACE('',#483,1.523E1,4.5E1);
#486=ORIENTED_EDGE('',*,*,#485,.F.);
#487=ORIENTED_EDGE('',*,*,#473,.T.);
#489=ORIENTED_EDGE('',*,*,#488,.T.);
#491=ORIENTED_EDGE('',*,*,#490,.F.);
#492=EDGE_LOOP('',(#486,#487,#489,#491));
#493=FACE_OUTER_BOUND('',#492,.F.);
#494=ADVANCED_FACE('',(#493),#484,.F.);
#495=CARTESIAN_POINT('',(0.E0,0.E0,-2.58E1));
#496=DIRECTION('',(0.E0,0.E0,-1.E0));
#497=DIRECTION('',(0.E0,-1.E0,0.E0));
#498=AXIS2_PLACEMENT_3D('',#495,#496,#497);
#499=CONICAL_SURFACE('',#498,1.523E1,4.5E1);
#500=ORIENTED_EDGE('',*,*,#485,.T.);
#502=ORIENTED_EDGE('',*,*,#501,.T.);
#503=ORIENTED_EDGE('',*,*,#488,.F.);
#504=ORIENTED_EDGE('',*,*,#475,.F.);
#505=EDGE_LOOP('',(#500,#502,#503,#504));
#506=FACE_OUTER_BOUND('',#505,.F.);
#507=ADVANCED_FACE('',(#506),#499,.F.);
#508=CARTESIAN_POINT('',(0.E0,0.E0,1.3E0));
#509=DIRECTION('',(0.E0,0.E0,-1.E0));
#510=DIRECTION('',(0.E0,-1.E0,0.E0));
#511=AXIS2_PLACEMENT_3D('',#508,#509,#510);
#512=CYLINDRICAL_SURFACE('',#511,1.503E1);
#514=ORIENTED_EDGE('',*,*,#513,.T.);
#515=ORIENTED_EDGE('',*,*,#273,.T.);
#517=ORIENTED_EDGE('',*,*,#516,.F.);
#518=ORIENTED_EDGE('',*,*,#501,.F.);
#519=EDGE_LOOP('',(#514,#515,#517,#518));
#520=FACE_OUTER_BOUND('',#519,.F.);
#521=ADVANCED_FACE('',(#520),#512,.F.);
#522=CARTESIAN_POINT('',(0.E0,0.E0,1.3E0));
#523=DIRECTION('',(0.E0,0.E0,-1.E0));
#524=DIRECTION('',(0.E0,-1.E0,0.E0));
#525=AXIS2_PLACEMENT_3D('',#522,#523,#524);
#526=CYLINDRICAL_SURFACE('',#525,1.503E1);
#527=ORIENTED_EDGE('',*,*,#513,.F.);
#528=ORIENTED_EDGE('',*,*,#490,.T.);
#529=ORIENTED_EDGE('',*,*,#516,.T.);
#530=ORIENTED_EDGE('',*,*,#288,.F.);
#531=EDGE_LOOP('',(#527,#528,#529,#530));
#532=FACE_OUTER_BOUND('',#531,.F.);
#533=ADVANCED_FACE('',(#532),#526,.F.);
#534=CLOSED_SHELL('',(#277,#297,#316,#332,#346,#362,#378,#395,#408,#422,#435,
#450,#463,#479,#494,#507,#521,#533));
#535=MANIFOLD_SOLID_BREP('',#534);
#537=DIMENSIONAL_EXPONENTS(0.E0,0.E0,0.E0,0.E0,0.E0,0.E0,0.E0);
#539=PLANE_ANGLE_MEASURE_WITH_UNIT(PLANE_ANGLE_MEASURE(1.745329251994E-2),#538);
#540=(CONVERSION_BASED_UNIT('DEGREE',#539)NAMED_UNIT(*)PLANE_ANGLE_UNIT());
#542=UNCERTAINTY_MEASURE_WITH_UNIT(LENGTH_MEASURE(6.484932500976E-3),#536,
'closure',
'Maximum model space distance between geometric entities at asserted connectivities');
#543=(GEOMETRIC_REPRESENTATION_CONTEXT(3)GLOBAL_UNCERTAINTY_ASSIGNED_CONTEXT((
#542))GLOBAL_UNIT_ASSIGNED_CONTEXT((#536,#540,#541))REPRESENTATION_CONTEXT
('ID1','3'));
#545=APPLICATION_CONTEXT(
'CONFIGURATION CONTROLLED 3D DESIGNS OF MECHANICAL PARTS AND ASSEMBLIES');
#546=APPLICATION_PROTOCOL_DEFINITION('international standard',
'config_control_design',1994,#545);
#547=DESIGN_CONTEXT('',#545,'design');
#548=MECHANICAL_CONTEXT('',#545,'mechanical');
#549=PRODUCT('PBG__STEPVORLAGE','PBG__STEPVORLAGE','NOT SPECIFIED',(#548));
#550=PRODUCT_DEFINITION_FORMATION_WITH_SPECIFIED_SOURCE('1','LAST_VERSION',#549,
.MADE.);
#554=PRODUCT_CATEGORY('part','');
#555=PRODUCT_RELATED_PRODUCT_CATEGORY('detail','',(#549));
#556=PRODUCT_CATEGORY_RELATIONSHIP('','',#554,#555);
#557=SECURITY_CLASSIFICATION_LEVEL('unclassified');
#558=SECURITY_CLASSIFICATION('','',#557);
#559=CC_DESIGN_SECURITY_CLASSIFICATION(#558,(#550));
#560=APPROVAL_STATUS('approved');
#561=APPROVAL(#560,'');
#562=CC_DESIGN_APPROVAL(#561,(#558,#550,#551));
#563=CALENDAR_DATE(116,9,8);
#564=COORDINATED_UNIVERSAL_TIME_OFFSET(2,0,.AHEAD.);
#565=LOCAL_TIME(11,12,1.9E1,#564);
#566=DATE_AND_TIME(#563,#565);
#567=APPROVAL_DATE_TIME(#566,#561);
#568=DATE_TIME_ROLE('creation_date');
#569=CC_DESIGN_DATE_AND_TIME_ASSIGNMENT(#566,#568,(#551));
#570=DATE_TIME_ROLE('classification_date');
#571=CC_DESIGN_DATE_AND_TIME_ASSIGNMENT(#566,#570,(#558));
#572=PERSON('UNSPECIFIED','UNSPECIFIED',$,$,$,$);
#573=ORGANIZATION('UNSPECIFIED','UNSPECIFIED','UNSPECIFIED');
#574=PERSON_AND_ORGANIZATION(#572,#573);
#575=APPROVAL_ROLE('approver');
#576=APPROVAL_PERSON_ORGANIZATION(#574,#561,#575);
#577=PERSON_AND_ORGANIZATION_ROLE('creator');
#578=CC_DESIGN_PERSON_AND_ORGANIZATION_ASSIGNMENT(#574,#577,(#550,#551));
#579=PERSON_AND_ORGANIZATION_ROLE('design_supplier');
#580=CC_DESIGN_PERSON_AND_ORGANIZATION_ASSIGNMENT(#574,#579,(#550));
#581=PERSON_AND_ORGANIZATION_ROLE('classification_officer');
#582=CC_DESIGN_PERSON_AND_ORGANIZATION_ASSIGNMENT(#574,#581,(#558));
#583=PERSON_AND_ORGANIZATION_ROLE('design_owner');
#584=CC_DESIGN_PERSON_AND_ORGANIZATION_ASSIGNMENT(#574,#583,(#549));
#5=CIRCLE('',#4,1.503E1);
#12=B_SPLINE_CURVE_WITH_KNOTS('',3,(#6,#7,#8,#9,#10,#11),.UNSPECIFIED.,.F.,.F.,(
4,1,1,4),(0.E0,3.333333333333E-1,6.666666666667E-1,1.E0),.UNSPECIFIED.);
#17=CIRCLE('',#16,3.E0);
#22=CIRCLE('',#21,1.503E1);
#27=CIRCLE('',#26,3.E0);
#34=B_SPLINE_CURVE_WITH_KNOTS('',3,(#28,#29,#30,#31,#32,#33),.UNSPECIFIED.,.F.,
.F.,(4,1,1,4),(0.E0,3.333333333333E-1,6.666666666667E-1,1.E0),.UNSPECIFIED.);
#51=CIRCLE('',#50,1.803E1);
#56=CIRCLE('',#55,1.803E1);
#61=CIRCLE('',#60,1.803E1);
#66=CIRCLE('',#65,2.1E1);
#75=CIRCLE('',#74,2.1E1);
#92=CIRCLE('',#91,1.8E1);
#104=B_SPLINE_CURVE_WITH_KNOTS('',3,(#93,#94,#95,#96,#97,#98,#99,#100,#101,#102,
#103),.UNSPECIFIED.,.F.,.F.,(4,1,1,1,1,1,1,1,4),(0.E0,1.25E-1,2.5E-1,3.75E-1,
5.E-1,6.25E-1,7.5E-1,8.75E-1,1.E0),.UNSPECIFIED.);
#109=CIRCLE('',#108,1.7E1);
#114=CIRCLE('',#113,1.7E1);
#134=B_SPLINE_CURVE_WITH_KNOTS('',3,(#123,#124,#125,#126,#127,#128,#129,#130,
#131,#132,#133),.UNSPECIFIED.,.F.,.F.,(4,1,1,1,1,1,1,1,4),(0.E0,1.25E-1,2.5E-1,
3.75E-1,5.E-1,6.25E-1,7.5E-1,8.75E-1,1.E0),.UNSPECIFIED.);
#139=CIRCLE('',#138,1.8E1);
#144=CIRCLE('',#143,1.E0);
#149=CIRCLE('',#148,1.7E1);
#154=CIRCLE('',#153,1.7E1);
#163=CIRCLE('',#162,1.7E1);
#172=CIRCLE('',#171,1.663602976573E1);
#177=CIRCLE('',#176,1.663602976573E1);
#186=CIRCLE('',#185,1.543E1);
#195=CIRCLE('',#194,1.543E1);
#200=CIRCLE('',#199,1.503E1);
#209=CIRCLE('',#208,1.503E1);
#267=EDGE_CURVE('',#225,#239,#17,.T.);
#269=EDGE_CURVE('',#239,#241,#56,.T.);
#271=EDGE_CURVE('',#237,#241,#27,.T.);
#273=EDGE_CURVE('',#225,#237,#5,.T.);
#283=EDGE_CURVE('',#246,#260,#12,.T.);
#285=EDGE_CURVE('',#239,#246,#61,.T.);
#288=EDGE_CURVE('',#225,#237,#22,.T.);
#291=EDGE_CURVE('',#251,#241,#51,.T.);
#293=EDGE_CURVE('',#260,#251,#34,.T.);
#303=EDGE_CURVE('',#246,#247,#42,.T.);
#306=EDGE_CURVE('',#260,#261,#38,.T.);
#308=EDGE_CURVE('',#261,#254,#104,.T.);
#310=EDGE_CURVE('',#254,#255,#83,.T.);
#312=EDGE_CURVE('',#247,#255,#79,.T.);
#323=EDGE_CURVE('',#250,#247,#75,.T.);
#325=EDGE_CURVE('',#250,#251,#46,.T.);
#338=EDGE_CURVE('',#255,#258,#66,.T.);
#340=EDGE_CURVE('',#250,#258,#70,.T.);
#353=EDGE_CURVE('',#243,#254,#92,.T.);
#355=EDGE_CURVE('',#259,#243,#139,.T.);
#357=EDGE_CURVE('',#258,#259,#87,.T.);
#370=EDGE_CURVE('',#216,#261,#109,.T.);
#372=EDGE_CURVE('',#216,#228,#149,.T.);
#374=EDGE_CURVE('',#243,#228,#144,.T.);
#385=EDGE_CURVE('',#261,#228,#114,.T.);
#387=EDGE_CURVE('',#228,#229,#118,.T.);
#389=EDGE_CURVE('',#217,#229,#163,.T.);
#391=EDGE_CURVE('',#216,#217,#122,.T.);
#401=EDGE_CURVE('',#259,#261,#134,.T.);
#429=EDGE_CURVE('',#217,#229,#154,.T.);
#441=EDGE_CURVE('',#217,#219,#158,.T.);
#443=EDGE_CURVE('',#219,#231,#172,.T.);
#445=EDGE_CURVE('',#229,#231,#167,.T.);
#459=EDGE_CURVE('',#219,#231,#177,.T.);
#473=EDGE_CURVE('',#222,#234,#186,.T.);
#475=EDGE_CURVE('',#222,#234,#195,.T.);
#485=EDGE_CURVE('',#222,#223,#181,.T.);
#488=EDGE_CURVE('',#234,#235,#190,.T.);
#490=EDGE_CURVE('',#223,#235,#209,.T.);
#501=EDGE_CURVE('',#223,#235,#200,.T.);
#513=EDGE_CURVE('',#223,#225,#204,.T.);
#516=EDGE_CURVE('',#235,#237,#213,.T.);
#536=(LENGTH_UNIT()NAMED_UNIT(*)SI_UNIT(.MILLI.,.METRE.));
#538=(NAMED_UNIT(*)PLANE_ANGLE_UNIT()SI_UNIT($,.RADIAN.));
#541=(NAMED_UNIT(*)SI_UNIT($,.STERADIAN.)SOLID_ANGLE_UNIT());
#544=ADVANCED_BREP_SHAPE_REPRESENTATION('',(#535),#543);
#551=PRODUCT_DEFINITION('design','',#550,#547);
#552=PRODUCT_DEFINITION_SHAPE('','SHAPE FOR PBG__STEPVORLAGE.',#551);
#553=SHAPE_DEFINITION_REPRESENTATION(#552,#544);
ENDSEC;
END-ISO-10303-21;
