ISO-10303-21;
HEADER;
FILE_DESCRIPTION((''),'2;1');
FILE_NAME('PG__A_2016_10_21','2016-08-09T',('deusss58'),(''),
'PRO/ENGINEER BY PARAMETRIC TECHNOLOGY CORPORATION, 2014430',
'PRO/ENGINEER BY PARAMETRIC TECHNOLOGY CORPORATION, 2014430','');
FILE_SCHEMA(('CONFIG_CONTROL_DESIGN'));
ENDSEC;
DATA;
#1=CARTESIAN_POINT('',(0.E0,0.E0,4.94E1));
#2=DIRECTION('',(0.E0,0.E0,-1.E0));
#3=DIRECTION('',(0.E0,-1.E0,0.E0));
#4=AXIS2_PLACEMENT_3D('',#1,#2,#3);
#6=DIRECTION('',(0.E0,-7.071067811865E-1,7.071067811865E-1));
#7=VECTOR('',#6,8.485281374238E-1);
#8=CARTESIAN_POINT('',(0.E0,-6.0115E1,4.94E1));
#9=LINE('',#8,#7);
#10=CARTESIAN_POINT('',(0.E0,0.E0,4.94E1));
#11=DIRECTION('',(0.E0,0.E0,1.E0));
#12=DIRECTION('',(0.E0,-1.E0,0.E0));
#13=AXIS2_PLACEMENT_3D('',#10,#11,#12);
#15=DIRECTION('',(0.E0,7.071067811865E-1,7.071067811865E-1));
#16=VECTOR('',#15,8.485281374238E-1);
#17=CARTESIAN_POINT('',(-1.334821142507E-14,6.0115E1,4.94E1));
#18=LINE('',#17,#16);
#19=CARTESIAN_POINT('',(4.616956152382E-14,6.0115E1,4.E0));
#20=CARTESIAN_POINT('',(3.021987037035E-1,6.0115E1,4.E0));
#21=CARTESIAN_POINT('',(8.906343885046E-1,6.011057539468E1,3.934533947288E0));
#22=CARTESIAN_POINT('',(1.759728472609E0,6.009109899500E1,3.629739469613E0));
#23=CARTESIAN_POINT('',(2.511605748856E0,6.006387313805E1,3.156281485609E0));
#24=CARTESIAN_POINT('',(3.160478455859E0,6.003275870573E1,2.506797326664E0));
#25=CARTESIAN_POINT('',(3.633745442486E0,6.000547345647E1,1.751008551334E0));
#26=CARTESIAN_POINT('',(3.934568265860E0,5.998620343816E1,8.882966742391E-1));
#27=CARTESIAN_POINT('',(4.000000005123E0,5.998177410580E1,3.013688614116E-1));
#28=CARTESIAN_POINT('',(4.000000005123E0,5.998177410580E1,-1.778403945682E-8));
#30=DIRECTION('',(0.E0,0.E0,1.E0));
#31=VECTOR('',#30,4.54E1);
#32=CARTESIAN_POINT('',(4.616956152382E-14,6.0115E1,4.E0));
#33=LINE('',#32,#31);
#34=DIRECTION('',(0.E0,0.E0,1.E0));
#35=VECTOR('',#34,9.88E1);
#36=CARTESIAN_POINT('',(0.E0,-6.0115E1,-4.94E1));
#37=LINE('',#36,#35);
#38=CARTESIAN_POINT('',(0.E0,0.E0,-4.94E1));
#39=DIRECTION('',(0.E0,0.E0,1.E0));
#40=DIRECTION('',(0.E0,-1.E0,0.E0));
#41=AXIS2_PLACEMENT_3D('',#38,#39,#40);
#43=DIRECTION('',(0.E0,0.E0,1.E0));
#44=VECTOR('',#43,4.54E1);
#45=CARTESIAN_POINT('',(-1.334821142507E-14,6.0115E1,-4.94E1));
#46=LINE('',#45,#44);
#47=CARTESIAN_POINT('',(4.000000005123E0,5.998177410580E1,-1.778403945682E-8));
#48=CARTESIAN_POINT('',(4.000000005123E0,5.998177410580E1,-3.014736951929E-1));
#49=CARTESIAN_POINT('',(3.934336662805E0,5.998621713064E1,-8.884224587248E-1));
#50=CARTESIAN_POINT('',(3.635100648958E0,6.000539011957E1,-1.748011034734E0));
#51=CARTESIAN_POINT('',(3.161711793917E0,6.003269245779E1,-2.505292202271E0));
#52=CARTESIAN_POINT('',(2.514506850140E0,6.006374203657E1,-3.153731790963E0));
#53=CARTESIAN_POINT('',(1.763597443839E0,6.009099542757E1,-3.628103843780E0));
#54=CARTESIAN_POINT('',(8.905337823504E-1,6.011059102085E1,-3.934786043931E0));
#55=CARTESIAN_POINT('',(3.020581176068E-1,6.0115E1,-4.E0));
#56=CARTESIAN_POINT('',(-7.968622760691E-14,6.0115E1,-4.E0));
#58=DIRECTION('',(2.143576548480E-9,-1.E0,-7.440726118575E-9));
#59=VECTOR('',#58,2.390094553079E0);
#60=CARTESIAN_POINT('',(4.E0,6.237186865888E1,0.E0));
#61=LINE('',#60,#59);
#62=CARTESIAN_POINT('',(-4.314303997213E-14,6.25E1,4.E0));
#63=CARTESIAN_POINT('',(-3.019300210450E-1,6.25E1,4.E0));
#64=CARTESIAN_POINT('',(-8.902092891E-1,6.249576305292E1,3.934844315774E0));
#65=CARTESIAN_POINT('',(-1.763208075979E0,6.247692277079E1,3.628291238105E0));
#66=CARTESIAN_POINT('',(-2.514183047242E0,6.245071277795E1,3.153991861866E0));
#67=CARTESIAN_POINT('',(-3.161465937843E0,6.242084990684E1,2.505607132271E0));
#68=CARTESIAN_POINT('',(-3.634952352658E0,6.239458877380E1,1.748324394262E0));
#69=CARTESIAN_POINT('',(-3.934279366054E0,6.237614511090E1,8.887212078250E-1));
#70=CARTESIAN_POINT('',(-4.E0,6.237186865888E1,3.015926890162E-1));
#71=CARTESIAN_POINT('',(-4.E0,6.237186865888E1,0.E0));
#73=CARTESIAN_POINT('',(0.E0,0.E0,4.88E1));
#74=DIRECTION('',(0.E0,0.E0,-1.E0));
#75=DIRECTION('',(0.E0,-1.E0,0.E0));
#76=AXIS2_PLACEMENT_3D('',#73,#74,#75);
#78=CARTESIAN_POINT('',(-4.E0,6.237186865888E1,0.E0));
#79=CARTESIAN_POINT('',(-4.E0,6.237186865888E1,-3.535829025483E-1));
#80=CARTESIAN_POINT('',(-3.909775250125E0,6.237774989622E1,-1.035954937700E0));
#81=CARTESIAN_POINT('',(-3.507976679104E0,6.240221504334E1,-2.018110896358E0));
#82=CARTESIAN_POINT('',(-2.861155463449E0,6.243593459733E1,-2.859974585250E0));
#83=CARTESIAN_POINT('',(-2.029178272294E0,6.246934157880E1,-3.501332039315E0));
#84=CARTESIAN_POINT('',(-1.037790610819E0,6.249414823284E1,-3.910258257569E0));
#85=CARTESIAN_POINT('',(-3.543073128998E-1,6.25E1,-4.E0));
#86=CARTESIAN_POINT('',(8.028324735965E-14,6.25E1,-4.E0));
#88=CARTESIAN_POINT('',(4.E0,6.237186865888E1,0.E0));
#89=CARTESIAN_POINT('',(4.E0,6.237186865888E1,3.013863825328E-1));
#90=CARTESIAN_POINT('',(3.934559412087E0,6.237612880618E1,8.883381023540E-1));
#91=CARTESIAN_POINT('',(3.633731827360E0,6.239466087144E1,1.751033820377E0));
#92=CARTESIAN_POINT('',(3.160467156371E0,6.242090145737E1,2.506810016453E0));
#93=CARTESIAN_POINT('',(2.511604749138E0,6.245082552118E1,3.156280700362E0));
#94=CARTESIAN_POINT('',(1.759742408391E0,6.247701080009E1,3.629731007774E0));
#95=CARTESIAN_POINT('',(8.906664956718E-1,6.249574374698E1,3.934526616243E0));
#96=CARTESIAN_POINT('',(3.022143578258E-1,6.25E1,4.E0));
#97=CARTESIAN_POINT('',(-4.314303997213E-14,6.25E1,4.E0));
#99=CARTESIAN_POINT('',(8.028324735965E-14,6.25E1,-4.E0));
#100=CARTESIAN_POINT('',(3.020730357447E-1,6.25E1,-4.E0));
#101=CARTESIAN_POINT('',(8.905641377535E-1,6.249575879899E1,-3.934779064039E0));
#102=CARTESIAN_POINT('',(1.763609975402E0,6.247691122925E1,-3.628096099879E0));
#103=CARTESIAN_POINT('',(2.514505572133E0,6.245069944776E1,-3.153731394924E0));
#104=CARTESIAN_POINT('',(3.161701623841E0,6.242083769082E1,-2.505303728511E0));
#105=CARTESIAN_POINT('',(3.635088799514E0,6.239458062303E1,-1.748033100205E0));
#106=CARTESIAN_POINT('',(3.934328873572E0,6.237614190578E1,-8.884588266577E-1));
#107=CARTESIAN_POINT('',(4.E0,6.237186865888E1,-3.014890840054E-1));
#108=CARTESIAN_POINT('',(4.E0,6.237186865888E1,0.E0));
#110=DIRECTION('',(0.E0,0.E0,-1.E0));
#111=VECTOR('',#110,4.48E1);
#112=CARTESIAN_POINT('',(8.028324735965E-14,6.25E1,-4.E0));
#113=LINE('',#112,#111);
#114=DIRECTION('',(0.E0,0.E0,-1.E0));
#115=VECTOR('',#114,9.76E1);
#116=CARTESIAN_POINT('',(0.E0,-6.25E1,4.88E1));
#117=LINE('',#116,#115);
#118=CARTESIAN_POINT('',(0.E0,0.E0,4.88E1));
#119=DIRECTION('',(0.E0,0.E0,1.E0));
#120=DIRECTION('',(0.E0,-1.E0,0.E0));
#121=AXIS2_PLACEMENT_3D('',#118,#119,#120);
#123=DIRECTION('',(0.E0,0.E0,-1.E0));
#124=VECTOR('',#123,4.48E1);
#125=CARTESIAN_POINT('',(-1.387778780781E-14,6.25E1,4.88E1));
#126=LINE('',#125,#124);
#127=DIRECTION('',(2.104534106075E-9,-1.E0,4.388733107707E-8));
#128=VECTOR('',#127,2.390094550956E0);
#129=CARTESIAN_POINT('',(-4.E0,6.237186865888E1,0.E0));
#130=LINE('',#129,#128);
#131=CARTESIAN_POINT('',(-3.999999994970E0,5.998177410792E1,1.048948711899E-7));
#132=CARTESIAN_POINT('',(-3.999999994970E0,5.998177410792E1,3.015773958744E-1));
#133=CARTESIAN_POINT('',(-3.934287099211E0,5.998622046663E1,8.886852717180E-1));
#134=CARTESIAN_POINT('',(-3.634963872135E0,6.000539861600E1,1.748303106625E0));
#135=CARTESIAN_POINT('',(-3.161475233191E0,6.003270520776E1,2.505596778611E0));
#136=CARTESIAN_POINT('',(-2.514182926028E0,6.006375595663E1,3.153993386706E0));
#137=CARTESIAN_POINT('',(-1.763193936021E0,6.009100747480E1,3.628299750720E0));
#138=CARTESIAN_POINT('',(-8.901775341802E-1,6.011059546078E1,3.934851550857E0));
#139=CARTESIAN_POINT('',(-3.019145436421E-1,6.0115E1,4.E0));
#140=CARTESIAN_POINT('',(4.616956152382E-14,6.0115E1,4.E0));
#142=CARTESIAN_POINT('',(-7.968622760691E-14,6.0115E1,-4.E0));
#143=CARTESIAN_POINT('',(-3.542889435608E-1,6.0115E1,-4.E0));
#144=CARTESIAN_POINT('',(-1.037754524792E0,6.010891678163E1,-3.910268385089E0));
#145=CARTESIAN_POINT('',(-2.029169646716E0,6.008312524414E1,-3.501339988143E0));
#146=CARTESIAN_POINT('',(-2.861161684499E0,6.004839011672E1,-2.859969889457E0));
#147=CARTESIAN_POINT('',(-3.507990408497E0,6.001332849702E1,-2.018091702963E0));
#148=CARTESIAN_POINT('',(-3.909787089583E0,5.998788893915E1,-1.035909559272E0));
#149=CARTESIAN_POINT('',(-3.999999994970E0,5.998177410792E1,
-3.535634497132E-1));
#150=CARTESIAN_POINT('',(-3.999999994970E0,5.998177410792E1,1.048948711899E-7));
#152=CARTESIAN_POINT('',(0.E0,0.E0,-4.94E1));
#153=DIRECTION('',(0.E0,0.E0,-1.E0));
#154=DIRECTION('',(0.E0,-1.E0,0.E0));
#155=AXIS2_PLACEMENT_3D('',#152,#153,#154);
#157=CARTESIAN_POINT('',(0.E0,0.E0,-5.E1));
#158=DIRECTION('',(0.E0,0.E0,-1.E0));
#159=DIRECTION('',(0.E0,-1.E0,0.E0));
#160=AXIS2_PLACEMENT_3D('',#157,#158,#159);
#162=DIRECTION('',(0.E0,7.071067811865E-1,7.071067811866E-1));
#163=VECTOR('',#162,8.485281374239E-1);
#164=CARTESIAN_POINT('',(0.E0,-6.0715E1,-5.E1));
#165=LINE('',#164,#163);
#166=CARTESIAN_POINT('',(0.E0,0.E0,-5.E1));
#167=DIRECTION('',(0.E0,0.E0,1.E0));
#168=DIRECTION('',(0.E0,-1.E0,0.E0));
#169=AXIS2_PLACEMENT_3D('',#166,#167,#168);
#171=DIRECTION('',(0.E0,-7.071067811865E-1,7.071067811866E-1));
#172=VECTOR('',#171,8.485281374239E-1);
#173=CARTESIAN_POINT('',(0.E0,6.0715E1,-5.E1));
#174=LINE('',#173,#172);
#175=CARTESIAN_POINT('',(0.E0,0.E0,-5.E1));
#176=DIRECTION('',(0.E0,0.E0,-1.E0));
#177=DIRECTION('',(0.E0,-1.E0,0.E0));
#178=AXIS2_PLACEMENT_3D('',#175,#176,#177);
#180=CARTESIAN_POINT('',(0.E0,0.E0,-5.E1));
#181=DIRECTION('',(0.E0,0.E0,1.E0));
#182=DIRECTION('',(0.E0,-1.E0,0.E0));
#183=AXIS2_PLACEMENT_3D('',#180,#181,#182);
#185=CARTESIAN_POINT('',(0.E0,0.E0,-4.88E1));
#186=DIRECTION('',(0.E0,0.E0,-1.E0));
#187=DIRECTION('',(0.E0,-1.E0,0.E0));
#188=AXIS2_PLACEMENT_3D('',#185,#186,#187);
#190=DIRECTION('',(0.E0,3.420201433257E-1,-9.396926207859E-1));
#191=VECTOR('',#190,1.277013326971E0);
#192=CARTESIAN_POINT('',(0.E0,-6.25E1,-4.88E1));
#193=LINE('',#192,#191);
#194=CARTESIAN_POINT('',(0.E0,0.E0,-4.88E1));
#195=DIRECTION('',(0.E0,0.E0,1.E0));
#196=DIRECTION('',(0.E0,-1.E0,0.E0));
#197=AXIS2_PLACEMENT_3D('',#194,#195,#196);
#199=DIRECTION('',(0.E0,-3.420201433257E-1,-9.396926207859E-1));
#200=VECTOR('',#199,1.277013326971E0);
#201=CARTESIAN_POINT('',(-1.387778780781E-14,6.25E1,-4.88E1));
#202=LINE('',#201,#200);
#203=DIRECTION('',(0.E0,-3.420201433257E-1,-9.396926207859E-1));
#204=VECTOR('',#203,1.277013326971E0);
#205=CARTESIAN_POINT('',(0.E0,-6.206323571888E1,5.E1));
#206=LINE('',#205,#204);
#207=CARTESIAN_POINT('',(0.E0,0.E0,5.E1));
#208=DIRECTION('',(0.E0,0.E0,1.E0));
#209=DIRECTION('',(0.E0,-1.E0,0.E0));
#210=AXIS2_PLACEMENT_3D('',#207,#208,#209);
#212=DIRECTION('',(0.E0,3.420201433257E-1,-9.396926207859E-1));
#213=VECTOR('',#212,1.277013326971E0);
#214=CARTESIAN_POINT('',(0.E0,6.206323571888E1,5.E1));
#215=LINE('',#214,#213);
#216=CARTESIAN_POINT('',(0.E0,0.E0,5.E1));
#217=DIRECTION('',(0.E0,0.E0,-1.E0));
#218=DIRECTION('',(0.E0,-1.E0,0.E0));
#219=AXIS2_PLACEMENT_3D('',#216,#217,#218);
#221=CARTESIAN_POINT('',(0.E0,0.E0,5.E1));
#222=DIRECTION('',(0.E0,0.E0,-1.E0));
#223=DIRECTION('',(0.E0,-1.E0,0.E0));
#224=AXIS2_PLACEMENT_3D('',#221,#222,#223);
#226=CARTESIAN_POINT('',(0.E0,0.E0,5.E1));
#227=DIRECTION('',(0.E0,0.E0,1.E0));
#228=DIRECTION('',(0.E0,-1.E0,0.E0));
#229=AXIS2_PLACEMENT_3D('',#226,#227,#228);
#231=CARTESIAN_POINT('',(0.E0,-6.0115E1,4.94E1));
#232=CARTESIAN_POINT('',(0.E0,-6.0715E1,5.E1));
#233=VERTEX_POINT('',#231);
#234=VERTEX_POINT('',#232);
#235=CARTESIAN_POINT('',(0.E0,-6.206323571888E1,5.E1));
#236=CARTESIAN_POINT('',(0.E0,-6.25E1,4.88E1));
#237=VERTEX_POINT('',#235);
#238=VERTEX_POINT('',#236);
#239=CARTESIAN_POINT('',(0.E0,-6.25E1,-4.88E1));
#240=VERTEX_POINT('',#239);
#241=CARTESIAN_POINT('',(0.E0,-6.206323571888E1,-5.E1));
#242=VERTEX_POINT('',#241);
#243=CARTESIAN_POINT('',(0.E0,-6.0715E1,-5.E1));
#244=CARTESIAN_POINT('',(0.E0,-6.0115E1,-4.94E1));
#245=VERTEX_POINT('',#243);
#246=VERTEX_POINT('',#244);
#247=CARTESIAN_POINT('',(-1.334821142507E-14,6.0115E1,4.94E1));
#248=CARTESIAN_POINT('',(0.E0,6.0715E1,5.E1));
#249=VERTEX_POINT('',#247);
#250=VERTEX_POINT('',#248);
#251=CARTESIAN_POINT('',(0.E0,6.206323571888E1,5.E1));
#252=CARTESIAN_POINT('',(-1.387778780781E-14,6.25E1,4.88E1));
#253=VERTEX_POINT('',#251);
#254=VERTEX_POINT('',#252);
#255=CARTESIAN_POINT('',(-1.387778780781E-14,6.25E1,-4.88E1));
#256=CARTESIAN_POINT('',(0.E0,6.206323571888E1,-5.E1));
#257=VERTEX_POINT('',#255);
#258=VERTEX_POINT('',#256);
#259=CARTESIAN_POINT('',(0.E0,6.0715E1,-5.E1));
#260=CARTESIAN_POINT('',(-1.334821142507E-14,6.0115E1,-4.94E1));
#261=VERTEX_POINT('',#259);
#262=VERTEX_POINT('',#260);
#263=VERTEX_POINT('',#62);
#264=VERTEX_POINT('',#71);
#265=VERTEX_POINT('',#86);
#266=VERTEX_POINT('',#131);
#267=VERTEX_POINT('',#140);
#268=VERTEX_POINT('',#142);
#269=VERTEX_POINT('',#88);
#270=VERTEX_POINT('',#28);
#271=CARTESIAN_POINT('',(0.E0,0.E0,4.97E1));
#272=DIRECTION('',(0.E0,0.E0,1.E0));
#273=DIRECTION('',(0.E0,1.E0,0.E0));
#274=AXIS2_PLACEMENT_3D('',#271,#272,#273);
#275=CONICAL_SURFACE('',#274,6.0415E1,4.5E1);
#277=ORIENTED_EDGE('',*,*,#276,.T.);
#279=ORIENTED_EDGE('',*,*,#278,.T.);
#281=ORIENTED_EDGE('',*,*,#280,.F.);
#283=ORIENTED_EDGE('',*,*,#282,.F.);
#284=EDGE_LOOP('',(#277,#279,#281,#283));
#285=FACE_OUTER_BOUND('',#284,.F.);
#286=ADVANCED_FACE('',(#285),#275,.F.);
#287=CARTESIAN_POINT('',(0.E0,0.E0,4.97E1));
#288=DIRECTION('',(0.E0,0.E0,1.E0));
#289=DIRECTION('',(0.E0,1.E0,0.E0));
#290=AXIS2_PLACEMENT_3D('',#287,#288,#289);
#291=CONICAL_SURFACE('',#290,6.0415E1,4.5E1);
#292=ORIENTED_EDGE('',*,*,#276,.F.);
#294=ORIENTED_EDGE('',*,*,#293,.T.);
#295=ORIENTED_EDGE('',*,*,#280,.T.);
#297=ORIENTED_EDGE('',*,*,#296,.F.);
#298=EDGE_LOOP('',(#292,#294,#295,#297));
#299=FACE_OUTER_BOUND('',#298,.F.);
#300=ADVANCED_FACE('',(#299),#291,.F.);
#301=CARTESIAN_POINT('',(0.E0,0.E0,5.5E1));
#302=DIRECTION('',(0.E0,0.E0,-1.E0));
#303=DIRECTION('',(0.E0,-1.E0,0.E0));
#304=AXIS2_PLACEMENT_3D('',#301,#302,#303);
#305=CYLINDRICAL_SURFACE('',#304,6.0115E1);
#307=ORIENTED_EDGE('',*,*,#306,.F.);
#309=ORIENTED_EDGE('',*,*,#308,.T.);
#310=ORIENTED_EDGE('',*,*,#293,.F.);
#312=ORIENTED_EDGE('',*,*,#311,.F.);
#314=ORIENTED_EDGE('',*,*,#313,.T.);
#316=ORIENTED_EDGE('',*,*,#315,.T.);
#318=ORIENTED_EDGE('',*,*,#317,.F.);
#319=EDGE_LOOP('',(#307,#309,#310,#312,#314,#316,#318));
#320=FACE_OUTER_BOUND('',#319,.F.);
#321=ADVANCED_FACE('',(#320),#305,.F.);
#322=CARTESIAN_POINT('',(0.E0,6.25E1,0.E0));
#323=DIRECTION('',(0.E0,-1.E0,0.E0));
#324=DIRECTION('',(1.E0,0.E0,0.E0));
#325=AXIS2_PLACEMENT_3D('',#322,#323,#324);
#326=CYLINDRICAL_SURFACE('',#325,4.E0);
#328=ORIENTED_EDGE('',*,*,#327,.T.);
#330=ORIENTED_EDGE('',*,*,#329,.T.);
#332=ORIENTED_EDGE('',*,*,#331,.T.);
#333=ORIENTED_EDGE('',*,*,#306,.T.);
#335=ORIENTED_EDGE('',*,*,#334,.F.);
#337=ORIENTED_EDGE('',*,*,#336,.T.);
#338=EDGE_LOOP('',(#328,#330,#332,#333,#335,#337));
#339=FACE_OUTER_BOUND('',#338,.F.);
#340=ADVANCED_FACE('',(#339),#326,.F.);
#341=CARTESIAN_POINT('',(0.E0,0.E0,5.5E1));
#342=DIRECTION('',(0.E0,0.E0,-1.E0));
#343=DIRECTION('',(0.E0,-1.E0,0.E0));
#344=AXIS2_PLACEMENT_3D('',#341,#342,#343);
#345=CYLINDRICAL_SURFACE('',#344,6.25E1);
#346=ORIENTED_EDGE('',*,*,#327,.F.);
#348=ORIENTED_EDGE('',*,*,#347,.F.);
#350=ORIENTED_EDGE('',*,*,#349,.F.);
#352=ORIENTED_EDGE('',*,*,#351,.T.);
#354=ORIENTED_EDGE('',*,*,#353,.T.);
#356=ORIENTED_EDGE('',*,*,#355,.F.);
#358=ORIENTED_EDGE('',*,*,#357,.F.);
#359=EDGE_LOOP('',(#346,#348,#350,#352,#354,#356,#358));
#360=FACE_OUTER_BOUND('',#359,.F.);
#361=ADVANCED_FACE('',(#360),#345,.T.);
#362=CARTESIAN_POINT('',(0.E0,0.E0,5.5E1));
#363=DIRECTION('',(0.E0,0.E0,-1.E0));
#364=DIRECTION('',(0.E0,-1.E0,0.E0));
#365=AXIS2_PLACEMENT_3D('',#362,#363,#364);
#366=CYLINDRICAL_SURFACE('',#365,6.25E1);
#367=ORIENTED_EDGE('',*,*,#336,.F.);
#369=ORIENTED_EDGE('',*,*,#368,.F.);
#370=ORIENTED_EDGE('',*,*,#355,.T.);
#372=ORIENTED_EDGE('',*,*,#371,.F.);
#373=ORIENTED_EDGE('',*,*,#351,.F.);
#375=ORIENTED_EDGE('',*,*,#374,.T.);
#376=ORIENTED_EDGE('',*,*,#347,.T.);
#377=EDGE_LOOP('',(#367,#369,#370,#372,#373,#375,#376));
#378=FACE_OUTER_BOUND('',#377,.F.);
#379=ADVANCED_FACE('',(#378),#366,.T.);
#380=CARTESIAN_POINT('',(0.E0,6.25E1,0.E0));
#381=DIRECTION('',(0.E0,-1.E0,0.E0));
#382=DIRECTION('',(1.E0,0.E0,0.E0));
#383=AXIS2_PLACEMENT_3D('',#380,#381,#382);
#384=CYLINDRICAL_SURFACE('',#383,4.E0);
#385=ORIENTED_EDGE('',*,*,#357,.T.);
#386=ORIENTED_EDGE('',*,*,#368,.T.);
#387=ORIENTED_EDGE('',*,*,#334,.T.);
#388=ORIENTED_EDGE('',*,*,#317,.T.);
#390=ORIENTED_EDGE('',*,*,#389,.T.);
#391=ORIENTED_EDGE('',*,*,#329,.F.);
#392=EDGE_LOOP('',(#385,#386,#387,#388,#390,#391));
#393=FACE_OUTER_BOUND('',#392,.F.);
#394=ADVANCED_FACE('',(#393),#384,.F.);
#395=CARTESIAN_POINT('',(0.E0,0.E0,5.5E1));
#396=DIRECTION('',(0.E0,0.E0,-1.E0));
#397=DIRECTION('',(0.E0,-1.E0,0.E0));
#398=AXIS2_PLACEMENT_3D('',#395,#396,#397);
#399=CYLINDRICAL_SURFACE('',#398,6.0115E1);
#400=ORIENTED_EDGE('',*,*,#331,.F.);
#401=ORIENTED_EDGE('',*,*,#389,.F.);
#402=ORIENTED_EDGE('',*,*,#315,.F.);
#404=ORIENTED_EDGE('',*,*,#403,.F.);
#405=ORIENTED_EDGE('',*,*,#311,.T.);
#406=ORIENTED_EDGE('',*,*,#282,.T.);
#407=ORIENTED_EDGE('',*,*,#308,.F.);
#408=EDGE_LOOP('',(#400,#401,#402,#404,#405,#406,#407));
#409=FACE_OUTER_BOUND('',#408,.F.);
#410=ADVANCED_FACE('',(#409),#399,.F.);
#411=CARTESIAN_POINT('',(0.E0,0.E0,-4.97E1));
#412=DIRECTION('',(0.E0,0.E0,-1.E0));
#413=DIRECTION('',(0.E0,-1.E0,0.E0));
#414=AXIS2_PLACEMENT_3D('',#411,#412,#413);
#415=CONICAL_SURFACE('',#414,6.0415E1,4.5E1);
#417=ORIENTED_EDGE('',*,*,#416,.T.);
#418=ORIENTED_EDGE('',*,*,#403,.T.);
#420=ORIENTED_EDGE('',*,*,#419,.F.);
#422=ORIENTED_EDGE('',*,*,#421,.F.);
#423=EDGE_LOOP('',(#417,#418,#420,#422));
#424=FACE_OUTER_BOUND('',#423,.F.);
#425=ADVANCED_FACE('',(#424),#415,.F.);
#426=CARTESIAN_POINT('',(0.E0,0.E0,-4.97E1));
#427=DIRECTION('',(0.E0,0.E0,-1.E0));
#428=DIRECTION('',(0.E0,-1.E0,0.E0));
#429=AXIS2_PLACEMENT_3D('',#426,#427,#428);
#430=CONICAL_SURFACE('',#429,6.0415E1,4.5E1);
#431=ORIENTED_EDGE('',*,*,#416,.F.);
#433=ORIENTED_EDGE('',*,*,#432,.T.);
#434=ORIENTED_EDGE('',*,*,#419,.T.);
#435=ORIENTED_EDGE('',*,*,#313,.F.);
#436=EDGE_LOOP('',(#431,#433,#434,#435));
#437=FACE_OUTER_BOUND('',#436,.F.);
#438=ADVANCED_FACE('',(#437),#430,.F.);
#439=CARTESIAN_POINT('',(0.E0,0.E0,-5.E1));
#440=DIRECTION('',(0.E0,0.E0,-1.E0));
#441=DIRECTION('',(0.E0,-1.E0,0.E0));
#442=AXIS2_PLACEMENT_3D('',#439,#440,#441);
#443=PLANE('',#442);
#445=ORIENTED_EDGE('',*,*,#444,.F.);
#447=ORIENTED_EDGE('',*,*,#446,.T.);
#448=EDGE_LOOP('',(#445,#447));
#449=FACE_OUTER_BOUND('',#448,.F.);
#450=ORIENTED_EDGE('',*,*,#432,.F.);
#451=ORIENTED_EDGE('',*,*,#421,.T.);
#452=EDGE_LOOP('',(#450,#451));
#453=FACE_BOUND('',#452,.F.);
#454=ADVANCED_FACE('',(#449,#453),#443,.T.);
#455=CARTESIAN_POINT('',(0.E0,0.E0,-4.94E1));
#456=DIRECTION('',(0.E0,0.E0,1.E0));
#457=DIRECTION('',(0.E0,1.E0,0.E0));
#458=AXIS2_PLACEMENT_3D('',#455,#456,#457);
#459=CONICAL_SURFACE('',#458,6.228161785944E1,2.E1);
#461=ORIENTED_EDGE('',*,*,#460,.T.);
#462=ORIENTED_EDGE('',*,*,#444,.T.);
#464=ORIENTED_EDGE('',*,*,#463,.F.);
#465=ORIENTED_EDGE('',*,*,#353,.F.);
#466=EDGE_LOOP('',(#461,#462,#464,#465));
#467=FACE_OUTER_BOUND('',#466,.F.);
#468=ADVANCED_FACE('',(#467),#459,.T.);
#469=CARTESIAN_POINT('',(0.E0,0.E0,-4.94E1));
#470=DIRECTION('',(0.E0,0.E0,1.E0));
#471=DIRECTION('',(0.E0,1.E0,0.E0));
#472=AXIS2_PLACEMENT_3D('',#469,#470,#471);
#473=CONICAL_SURFACE('',#472,6.228161785944E1,2.E1);
#474=ORIENTED_EDGE('',*,*,#460,.F.);
#475=ORIENTED_EDGE('',*,*,#371,.T.);
#476=ORIENTED_EDGE('',*,*,#463,.T.);
#477=ORIENTED_EDGE('',*,*,#446,.F.);
#478=EDGE_LOOP('',(#474,#475,#476,#477));
#479=FACE_OUTER_BOUND('',#478,.F.);
#480=ADVANCED_FACE('',(#479),#473,.T.);
#481=CARTESIAN_POINT('',(0.E0,0.E0,4.94E1));
#482=DIRECTION('',(0.E0,0.E0,-1.E0));
#483=DIRECTION('',(0.E0,-1.E0,0.E0));
#484=AXIS2_PLACEMENT_3D('',#481,#482,#483);
#485=CONICAL_SURFACE('',#484,6.228161785944E1,2.E1);
#487=ORIENTED_EDGE('',*,*,#486,.F.);
#489=ORIENTED_EDGE('',*,*,#488,.T.);
#491=ORIENTED_EDGE('',*,*,#490,.T.);
#492=ORIENTED_EDGE('',*,*,#374,.F.);
#493=EDGE_LOOP('',(#487,#489,#491,#492));
#494=FACE_OUTER_BOUND('',#493,.F.);
#495=ADVANCED_FACE('',(#494),#485,.T.);
#496=CARTESIAN_POINT('',(0.E0,0.E0,4.94E1));
#497=DIRECTION('',(0.E0,0.E0,-1.E0));
#498=DIRECTION('',(0.E0,-1.E0,0.E0));
#499=AXIS2_PLACEMENT_3D('',#496,#497,#498);
#500=CONICAL_SURFACE('',#499,6.228161785944E1,2.E1);
#501=ORIENTED_EDGE('',*,*,#486,.T.);
#502=ORIENTED_EDGE('',*,*,#349,.T.);
#503=ORIENTED_EDGE('',*,*,#490,.F.);
#505=ORIENTED_EDGE('',*,*,#504,.F.);
#506=EDGE_LOOP('',(#501,#502,#503,#505));
#507=FACE_OUTER_BOUND('',#506,.F.);
#508=ADVANCED_FACE('',(#507),#500,.T.);
#509=CARTESIAN_POINT('',(0.E0,0.E0,5.E1));
#510=DIRECTION('',(0.E0,0.E0,-1.E0));
#511=DIRECTION('',(0.E0,-1.E0,0.E0));
#512=AXIS2_PLACEMENT_3D('',#509,#510,#511);
#513=PLANE('',#512);
#514=ORIENTED_EDGE('',*,*,#488,.F.);
#515=ORIENTED_EDGE('',*,*,#504,.T.);
#516=EDGE_LOOP('',(#514,#515));
#517=FACE_OUTER_BOUND('',#516,.F.);
#518=ORIENTED_EDGE('',*,*,#278,.F.);
#519=ORIENTED_EDGE('',*,*,#296,.T.);
#520=EDGE_LOOP('',(#518,#519));
#521=FACE_BOUND('',#520,.F.);
#522=ADVANCED_FACE('',(#517,#521),#513,.F.);
#523=CLOSED_SHELL('',(#286,#300,#321,#340,#361,#379,#394,#410,#425,#438,#454,
#468,#480,#495,#508,#522));
#524=MANIFOLD_SOLID_BREP('',#523);
#526=DIMENSIONAL_EXPONENTS(0.E0,0.E0,0.E0,0.E0,0.E0,0.E0,0.E0);
#528=PLANE_ANGLE_MEASURE_WITH_UNIT(PLANE_ANGLE_MEASURE(1.745329251994E-2),#527);
#529=(CONVERSION_BASED_UNIT('DEGREE',#528)NAMED_UNIT(*)PLANE_ANGLE_UNIT());
#531=UNCERTAINTY_MEASURE_WITH_UNIT(LENGTH_MEASURE(2.030928360775E-2),#525,
'closure',
'Maximum model space distance between geometric entities at asserted connectivities');
#532=(GEOMETRIC_REPRESENTATION_CONTEXT(3)GLOBAL_UNCERTAINTY_ASSIGNED_CONTEXT((
#531))GLOBAL_UNIT_ASSIGNED_CONTEXT((#525,#529,#530))REPRESENTATION_CONTEXT
('ID1','3'));
#534=APPLICATION_CONTEXT(
'CONFIGURATION CONTROLLED 3D DESIGNS OF MECHANICAL PARTS AND ASSEMBLIES');
#535=APPLICATION_PROTOCOL_DEFINITION('international standard',
'config_control_design',1994,#534);
#536=DESIGN_CONTEXT('',#534,'design');
#537=MECHANICAL_CONTEXT('',#534,'mechanical');
#538=PRODUCT('PG__A_2016_10_21','PG__A_2016_10_21','NOT SPECIFIED',(#537));
#539=PRODUCT_DEFINITION_FORMATION_WITH_SPECIFIED_SOURCE('1','LAST_VERSION',#538,
.MADE.);
#543=PRODUCT_CATEGORY('part','');
#544=PRODUCT_RELATED_PRODUCT_CATEGORY('detail','',(#538));
#545=PRODUCT_CATEGORY_RELATIONSHIP('','',#543,#544);
#546=SECURITY_CLASSIFICATION_LEVEL('unclassified');
#547=SECURITY_CLASSIFICATION('','',#546);
#548=CC_DESIGN_SECURITY_CLASSIFICATION(#547,(#539));
#549=APPROVAL_STATUS('approved');
#550=APPROVAL(#549,'');
#551=CC_DESIGN_APPROVAL(#550,(#547,#539,#540));
#552=CALENDAR_DATE(116,9,8);
#553=COORDINATED_UNIVERSAL_TIME_OFFSET(2,0,.AHEAD.);
#554=LOCAL_TIME(6,47,3.4E1,#553);
#555=DATE_AND_TIME(#552,#554);
#556=APPROVAL_DATE_TIME(#555,#550);
#557=DATE_TIME_ROLE('creation_date');
#558=CC_DESIGN_DATE_AND_TIME_ASSIGNMENT(#555,#557,(#540));
#559=DATE_TIME_ROLE('classification_date');
#560=CC_DESIGN_DATE_AND_TIME_ASSIGNMENT(#555,#559,(#547));
#561=PERSON('UNSPECIFIED','UNSPECIFIED',$,$,$,$);
#562=ORGANIZATION('UNSPECIFIED','UNSPECIFIED','UNSPECIFIED');
#563=PERSON_AND_ORGANIZATION(#561,#562);
#564=APPROVAL_ROLE('approver');
#565=APPROVAL_PERSON_ORGANIZATION(#563,#550,#564);
#566=PERSON_AND_ORGANIZATION_ROLE('creator');
#567=CC_DESIGN_PERSON_AND_ORGANIZATION_ASSIGNMENT(#563,#566,(#539,#540));
#568=PERSON_AND_ORGANIZATION_ROLE('design_supplier');
#569=CC_DESIGN_PERSON_AND_ORGANIZATION_ASSIGNMENT(#563,#568,(#539));
#570=PERSON_AND_ORGANIZATION_ROLE('classification_officer');
#571=CC_DESIGN_PERSON_AND_ORGANIZATION_ASSIGNMENT(#563,#570,(#547));
#572=PERSON_AND_ORGANIZATION_ROLE('design_owner');
#573=CC_DESIGN_PERSON_AND_ORGANIZATION_ASSIGNMENT(#563,#572,(#538));
#5=CIRCLE('',#4,6.0115E1);
#14=CIRCLE('',#13,6.0115E1);
#29=B_SPLINE_CURVE_WITH_KNOTS('',3,(#19,#20,#21,#22,#23,#24,#25,#26,#27,#28),
.UNSPECIFIED.,.F.,.F.,(4,1,1,1,1,1,1,4),(0.E0,1.428571428571E-1,
2.857142857143E-1,4.285714285714E-1,5.714285714286E-1,7.142857142857E-1,
8.571428571429E-1,1.E0),.UNSPECIFIED.);
#42=CIRCLE('',#41,6.0115E1);
#57=B_SPLINE_CURVE_WITH_KNOTS('',3,(#47,#48,#49,#50,#51,#52,#53,#54,#55,#56),
.UNSPECIFIED.,.F.,.F.,(4,1,1,1,1,1,1,4),(0.E0,1.428571428571E-1,
2.857142857143E-1,4.285714285714E-1,5.714285714286E-1,7.142857142857E-1,
8.571428571429E-1,1.E0),.UNSPECIFIED.);
#72=B_SPLINE_CURVE_WITH_KNOTS('',3,(#62,#63,#64,#65,#66,#67,#68,#69,#70,#71),
.UNSPECIFIED.,.F.,.F.,(4,1,1,1,1,1,1,4),(0.E0,1.428571428571E-1,
2.857142857143E-1,4.285714285714E-1,5.714285714286E-1,7.142857142857E-1,
8.571428571429E-1,1.E0),.UNSPECIFIED.);
#77=CIRCLE('',#76,6.25E1);
#87=B_SPLINE_CURVE_WITH_KNOTS('',3,(#78,#79,#80,#81,#82,#83,#84,#85,#86),
.UNSPECIFIED.,.F.,.F.,(4,1,1,1,1,1,4),(0.E0,1.666666666667E-1,3.333333333333E-1,
5.E-1,6.666666666667E-1,8.333333333333E-1,1.E0),.UNSPECIFIED.);
#98=B_SPLINE_CURVE_WITH_KNOTS('',3,(#88,#89,#90,#91,#92,#93,#94,#95,#96,#97),
.UNSPECIFIED.,.F.,.F.,(4,1,1,1,1,1,1,4),(0.E0,1.428571428571E-1,
2.857142857143E-1,4.285714285714E-1,5.714285714286E-1,7.142857142857E-1,
8.571428571429E-1,1.E0),.UNSPECIFIED.);
#109=B_SPLINE_CURVE_WITH_KNOTS('',3,(#99,#100,#101,#102,#103,#104,#105,#106,
#107,#108),.UNSPECIFIED.,.F.,.F.,(4,1,1,1,1,1,1,4),(0.E0,1.428571428571E-1,
2.857142857143E-1,4.285714285714E-1,5.714285714286E-1,7.142857142857E-1,
8.571428571429E-1,1.E0),.UNSPECIFIED.);
#122=CIRCLE('',#121,6.25E1);
#141=B_SPLINE_CURVE_WITH_KNOTS('',3,(#131,#132,#133,#134,#135,#136,#137,#138,
#139,#140),.UNSPECIFIED.,.F.,.F.,(4,1,1,1,1,1,1,4),(0.E0,1.428571428571E-1,
2.857142857143E-1,4.285714285714E-1,5.714285714286E-1,7.142857142857E-1,
8.571428571429E-1,1.E0),.UNSPECIFIED.);
#151=B_SPLINE_CURVE_WITH_KNOTS('',3,(#142,#143,#144,#145,#146,#147,#148,#149,
#150),.UNSPECIFIED.,.F.,.F.,(4,1,1,1,1,1,4),(0.E0,1.666666666667E-1,
3.333333333333E-1,5.E-1,6.666666666667E-1,8.333333333333E-1,1.E0),
.UNSPECIFIED.);
#156=CIRCLE('',#155,6.0115E1);
#161=CIRCLE('',#160,6.0715E1);
#170=CIRCLE('',#169,6.0715E1);
#179=CIRCLE('',#178,6.206323571888E1);
#184=CIRCLE('',#183,6.206323571888E1);
#189=CIRCLE('',#188,6.25E1);
#198=CIRCLE('',#197,6.25E1);
#211=CIRCLE('',#210,6.206323571888E1);
#220=CIRCLE('',#219,6.206323571888E1);
#225=CIRCLE('',#224,6.0715E1);
#230=CIRCLE('',#229,6.0715E1);
#276=EDGE_CURVE('',#233,#234,#9,.T.);
#278=EDGE_CURVE('',#234,#250,#225,.T.);
#280=EDGE_CURVE('',#249,#250,#18,.T.);
#282=EDGE_CURVE('',#233,#249,#5,.T.);
#293=EDGE_CURVE('',#233,#249,#14,.T.);
#296=EDGE_CURVE('',#234,#250,#230,.T.);
#306=EDGE_CURVE('',#267,#270,#29,.T.);
#308=EDGE_CURVE('',#267,#249,#33,.T.);
#311=EDGE_CURVE('',#246,#233,#37,.T.);
#313=EDGE_CURVE('',#246,#262,#42,.T.);
#315=EDGE_CURVE('',#262,#268,#46,.T.);
#317=EDGE_CURVE('',#270,#268,#57,.T.);
#327=EDGE_CURVE('',#263,#264,#72,.T.);
#329=EDGE_CURVE('',#264,#266,#130,.T.);
#331=EDGE_CURVE('',#266,#267,#141,.T.);
#334=EDGE_CURVE('',#269,#270,#61,.T.);
#336=EDGE_CURVE('',#269,#263,#98,.T.);
#347=EDGE_CURVE('',#254,#263,#126,.T.);
#349=EDGE_CURVE('',#238,#254,#77,.T.);
#351=EDGE_CURVE('',#238,#240,#117,.T.);
#353=EDGE_CURVE('',#240,#257,#189,.T.);
#355=EDGE_CURVE('',#265,#257,#113,.T.);
#357=EDGE_CURVE('',#264,#265,#87,.T.);
#368=EDGE_CURVE('',#265,#269,#109,.T.);
#371=EDGE_CURVE('',#240,#257,#198,.T.);
#374=EDGE_CURVE('',#238,#254,#122,.T.);
#389=EDGE_CURVE('',#268,#266,#151,.T.);
#403=EDGE_CURVE('',#246,#262,#156,.T.);
#416=EDGE_CURVE('',#245,#246,#165,.T.);
#419=EDGE_CURVE('',#261,#262,#174,.T.);
#421=EDGE_CURVE('',#245,#261,#161,.T.);
#432=EDGE_CURVE('',#245,#261,#170,.T.);
#444=EDGE_CURVE('',#242,#258,#179,.T.);
#446=EDGE_CURVE('',#242,#258,#184,.T.);
#460=EDGE_CURVE('',#240,#242,#193,.T.);
#463=EDGE_CURVE('',#257,#258,#202,.T.);
#486=EDGE_CURVE('',#237,#238,#206,.T.);
#488=EDGE_CURVE('',#237,#253,#211,.T.);
#490=EDGE_CURVE('',#253,#254,#215,.T.);
#504=EDGE_CURVE('',#237,#253,#220,.T.);
#525=(LENGTH_UNIT()NAMED_UNIT(*)SI_UNIT(.MILLI.,.METRE.));
#527=(NAMED_UNIT(*)PLANE_ANGLE_UNIT()SI_UNIT($,.RADIAN.));
#530=(NAMED_UNIT(*)SI_UNIT($,.STERADIAN.)SOLID_ANGLE_UNIT());
#533=ADVANCED_BREP_SHAPE_REPRESENTATION('',(#524),#532);
#540=PRODUCT_DEFINITION('design','',#539,#536);
#541=PRODUCT_DEFINITION_SHAPE('','SHAPE FOR PG__A_2016_10_21.',#540);
#542=SHAPE_DEFINITION_REPRESENTATION(#541,#533);
ENDSEC;
END-ISO-10303-21;
